Song name
# A B C D E F G H I J K L M N O P Q R S T U V W X Y Z

Misc Unsigned Bands - Blackout - Trapped By Love tab

Trapped by Love - Blackout

My first tab, here you go, Blackout!

Here is Blackout's official Youtube page:

You can find this song in the video titled "Blackout @ The Rock Room 12/01/10 "

And Here is Blackout's official Facebook page:!/pages/Blackout/199369734566

Tabbed by: Jack_Grohl

Tuning: Standard


e ----------------------------------------------|
B ----------------------------------------------|
G -7-7---5-5---4-4------------------------------|
D -7-7---5-5---4-4---7-7--5-5-------------------|
A -5-5---3-3---2-2---7-7--5-5-------------------|
E -------------------5-5--3-3-------------------|

Then just add some palm muting between the power-chords:

e ----xxxx---xxxx---xxxx---xx----------------------|
B ----xxxx---xxxx---xxxx---xx----------------------|
G -7-7xxxx5-5xxxx4-4xxxx---xx----------------------|
D -7-7xxxx5-5xxxx4-4xxxx7-7xx5-5-------------------|
A -5-5xxxx3-3xxxx2-2xxxx7-7xx5-5-------------------|
E ----xxxx---xxxx---xxxx5-5xx3-3-------------------| x5

Then the chorus I guess?:

e -------------------------------------------------|
B -------------------------------------------------|
G -------------------------------------------------|
D ---3-5-6-5-3----3-5b----3-5-6-5---3--------------|
A -5------------5------5----------5---5------------|
E -------------------------------------------------| x2

Verse x1

Then a some hammer-ons and pull-offs are added to the next verse:

e ------------------------------------------------|
B ------------------------------------------------|
G -7-7-5h7p5----5-5-5h7p5---4-4-5h7p5-------------|
D -7-7-------7--5-5-------7-4-4-------7-7-7--5-5--|
A -5-5----------3-3---------2-2---------7-7--5-5--|
E --------------------------------------5-5--3-3--|

Then Verse x4

finally Chorus x2

And that's it!


| /   slide up
| \   slide down
| h   hammer-on
| p   pull-off
| ~   vibrato
| +   harmonic
| x   Mute note
| b   Bend
| pb  Pre-bend
| br  Bend release
| pbr Pre-bend release
| brb Bend release bend

Tap to rate this tab
# A B C D E F G H I J K L M N O P Q R S T U V W X Y Z