Misc Unsigned Bands - Fallen Traitors - War Peace tab

Song: War & Peace
Album: War & Peace
Tuning: Drop D

Verse:
e--------------------------------|
B--------------------------------|
G--------------------------------|
D---14-14-14141414-14-14-141414--|
A---12-12-12121212-12-12-121212--|
D--------------------------------|

e--------------------------------|
B--------------------------------|
G--------------------------------|
D---14-14-14141414-14-14-141414--|
A---11-11-11111111-11-11-111111--|
D--------------------------------|

e--------------------------------|
B--------------------------------|
G--------------------------------|
D---14-14-14141414-14-14-141414--|
A---9--9--9-9-9-9--9--9--9-9-9---|
D--------------------------------|

e--------------------------------|
B--------------------------------|
G--------------------------------|
D---14-14-14141414-14-14-141414--|
A---12-12-12121212-12-12-121212--|
D---12-12-12121212-12-12-121212--|

Chorus:
e---------------------------------------|
B---------------------------------------|
G---------------------------------------|
D-------14------14------14--14--14--14--|
A---1212----1212----1212--12--12--12----|
D---------------------------------------|

e---------------------------------------|
B---------------------------------------|
G---------------------------------------|
D-------14------14------14--14--14--14--|
A---1111----1111----1111--11--11--11----|
D---------------------------------------|

e---------------------------------------|
B---------------------------------------|
G---------------------------------------|
D-------14------14------14--14--14--14--|
A----9-9-----9-9-----9-9---9---9---9----|
D---------------------------------------|

e--------------------------------------------|
B--------------------------------------------|
G--------------------------------------------|
D-------14------14------14------X--14h16p14--|
A--------------------------------------------|
D---1212----1212----1212----X-X--------------|


Bridge/Solo:
e--------------------------------|
B--------------------------------|
G-------------------------14-----|
D---1414--1414-------14h16-------|
A---1212--1212--14h16------------|
D--------------------------------|

e--------------------------------|
B--------------------------------|
G-------------------------14-----|
D---1414--1414-------14h16-------|
A---1111--1111--14h16------------|
D--------------------------------|

e--------------------------------|
B--------------------------------|
G-------------------------14-----|
D---1414--1414-------14h16-------|
A---9-9---9-9---14h16------------|
D--------------------------------|

e----------------------------------|
B----------------------16----------|
G-----------------16b18--18b16-14--|
D---1414--1414---------------------|
A----------------------------------|
D---1212--1212---------------------|

e-----------------------------------|
B-----------------------------------|
G-----------------16b18b16-14-16-14-|
D---1414--1414----------------------|
A---1212--1212----------------------|
D-----------------------------------|

e---------------------------------------|
B---------------------------------------|
G-----------------(16)b18b16h14---------|
D---1414--1414-----------------16h14----|
A---1111--1111----------------------16--|
D---------------------------------------|

e--------------------------------|
B--------------------------------|
G--------------------------------|
D---1414--1414-------------------|
A---9-9---9-9----16-14-12-14-12--|
D--------------------------------|

e----------------------------------|
B----------------------------------|
G----------------------------------|
D---1414--1414--1414---------------|
A----------------------------------|
D---1212--1212--1212---------------|
Tap to rate this tab
 
# A B C D E F G H I J K L M N O P Q R S T U V W X Y Z