Song name
# A B C D E F G H I J K L M N O P Q R S T U V W X Y Z

Misc Unsigned Bands - Fallen Traitors - Please Dont Go I Love You tab

Song: Please Don’t Go… (I Love You…)
Album: War & Peace
Tuning: Drop D

Intro:
E-----------------------------------------------|
B-----------------------------------------------|
G-----------------------------------------------|
D-------9---/-------12--\-----7--/-------12--\--|
A-----7-----/----10-----\---5----/----10-----\--|
D---7-------/-10--------\-5------/-10--------\--|

Verses:
E-----------------------------------------------|
B-----------------------------------------------|
G-----------------------------------------------|
D-------9---/-------12--\-----7--/-------12~~\--|
A-----7-----/----10-----\---5----/----10-----\--|
D---7-------/-10--------\-5------/-10--------\--|

E-----------------------------------------------|
B-----------------------------------------------|
G-----------------------------------------------|
D-------9---/-------12--\-----7--/------(12)-\--|
A-----7-----/----10-----\---5----/----10-----\--|
D---7-------/-10--------\-5------/-10--------\--|


Choruses:
E------------------------------------------------|
B------------------------------------------------|
G------------------------------------------------|
D---9--9--9-9--9-9-9-/-12--12--12-12--12--12-12\-|
A---7--7--7-7--7-7-7-/-10--10--10-10--10--10-10\-|
D---7--7-7--7--7-7-7-/-10--10--10-10--10--10-10\-|

E------------------------------------------------|
B------------------------------------------------|
G------------------------------------------------|
D---7--7--7-7--7-7-7-/-12--12--12-12--12--12-12\-|
A---5--5--5-5--5-5-5-/-10--10--10-10--10--10-10\-|
D---5--5--5-5--5-5-5-/-10--10--10-10--10--10-10\-|

Bridge:
E---------------------------------------|\
B---------------------------------------| \
G---99999999(x2)/1212121212121212(x2)\--|  \
D---------------------------------------|   \
A---77777777(x2)/1010101010101010(x2)\--|    \
D---------------------------------------|     \
                                             [x4]
E---------------------------------------|     /
B---------------------------------------|    /
G---77777777(x2)/4-4-4--x-5-5-5-x-------|   /
D---------------------------------------|  /
A---55555555(x2)/2-2-2--x-3-3-3-x-------| /
D----------------------------------12\--|/

E--------------------------------------------|
B--------------------------------------------|
G---4-4-4--x-5-5-5-----2-2-2--x-3-3-3~~~~~~~~|
D--------------------------------------------|
A---2-2-2--x-3-3-3-----2-2-2--x-3-3-3~~~~~~~~|
D------------------12\-0-0-0----0-0-0~~~~~~~~|

Interlude
E-----------------------------------------------|
B-----------------------------------------------|
G-----------------------------------------------|
D-------9---/-------12--\-----7--/-------12~~\--|
A-----7-----/----10-----\---5----/----10-----\--|
D---7-------/-10--------\-5------/-10--------\--|

E-----------------------------------------------|
B-----------------------------------------------|
G-----------------------------------------------|
D-------9---/-------12--\-----7--/------(12)-\--|
A-----7-----/----10-----\---5----/----10-----\--|
D---7-------/-10--------\-5------/-10--------\--|

Choruses:
E------------------------------------------------|
B------------------------------------------------|
G------------------------------------------------|
D---9--9--9-9--9-9-9-/-12--12--12-12--12--12-12\-|
A---7--7--7-7--7-7-7-/-10--10--10-10--10--10-10\-|
D---7--7-7--7--7-7-7-/-10--10--10-10--10--10-10\-|

E------------------------------------------------|
B------------------------------------------------|
G------------------------------------------------|
D---7--7--7-7--7-7-7-/-12--12--12-12--12--12-12\-|
A---5--5--5-5--5-5-5-/-10--10--10-10--10--10-10\-|
D---5--5--5-5--5-5-5-/-10--10--10-10--10--10-10\-|

Outro
E-----------------------------------------------|
B-----------------------------------------------|
G-----------------------------------5~~~~~~~\---|
D-------9----/-----7----\-----5~~~~~~~~-~~~~\---|
A-----7---7--/---5---5--\---3---3~~~~~~~~~~~\---|
D---7--------/-5--------\-3~~~~~~~~~~~~~~~~~\---|
Tap to rate this tab
 
# A B C D E F G H I J K L M N O P Q R S T U V W X Y Z