Song name
# A B C D E F G H I J K L M N O P Q R S T U V W X Y Z

Misc Unsigned Bands - In The Eyes Of A Mistress - Dude Chicks Are For Fags tab

-----------------------------------------------------------------------------
DUDE, CHICKS ARE FOR FAGS - In The Eyes Of a Mistress
-----------------------------------------------------------------------------
Tabbed by: PotatoeSacks
Email: iteoam32@gmail.com

Tuning: Drop C

Lead x8
D|-12p0--------------12p0----------------12p0-12p0-12p0-12p0----------------|
A|----12p0-13p0-12p0------12p0-13p0-12p0------------------------------------|
F|--------------------------------------------------------------------------|
C|--------------------------------------------------------------------------|
G|--------------------------------------------------------------------------|
C|--------------------------------------------------------------------------|


Rhythm x4
D|-------2/14---------------------------------------------------------------|
A|-------2/14---------------------------------------------------------------|
F|-------2/14---------------------------------------------------------------|
C|-00000x--0x---00000x-000x-0x-0x-000x-000x---------------------------------|
G|-00000x--0x---00000x-000x-0x-0x-000x-000x---------------------------------|
C|-00000x--0x---00000x-000x-0x-0x-000x-000x---------------------------------|

Lead(palm mute first time) x2
D|--------------------------------------------------------------------------|
A|--------------------------------------------------------------------------|
F|--------------------------------------------------------------------------|
C|-7-7-7-7-5-5-5-5-8-8-8-3-3-3-3-5-5-7-7-7-7-5-5-5-5-0-0-2-2-3-3-5-5--------|
G|--------------------------------------------------------------------------|
C|--------------------------------------------------------------------------|


Rhythm(palm mute)x2
D|--------------------------------------------------------------------------|
A|--------------------------------------------------------------------------|
F|--------------------------------------------------------------------------|
C|-7-7-7-7-5-5-5-5-8-8-8-3-3-3-3-5-5-7-7-7-7-5-5-5-5-0-0-2-2-3-3-5-5--------|
G|-7-7-7-7-5-5-5-5-8-8-8-3-3-3-3-5-5-7-7-7-7-5-5-5-5-0-0-2-2-3-3-5-5--------|
C|-7-7-7-7-5-5-5-5-8-8-8-3-3-3-3-5-5-7-7-7-7-5-5-5-5-0-0-2-2-3-3-5-5--------|

Lead + Rhythm x5
D|--------------------------------------------------------------------------|
A|--------------------------------------------------------------------------|
F|--------------------------------------------------------------------------|
C|-7-7-7-7-5-5-5-5-8-8-3-3-3-3-5-5-7-7-7-7-5-5-5-5-0-0-2-2-3-3-5-5----------|
G|-7-7-7-7-5-5-5-5-8-8-3-3-3-3-5-5-7-7-7-7-5-5-5-5-0-0-2-2-3-3-5-5----------|
C|-7-7-7-7-5-5-5-5-8-8-3-3-3-3-5-5-7-7-7-7-5-5-5-5-0-0-2-2-3-3-5-5----------|

Lead x5
D|--------------------------------------------------------------------------|
A|--------------------------------------------------------------------------|
F|--------------------------------------------------------------------------|
C|--------------------------------------------------------------------------|
G|-----5---7---8---5---7---8---7p5-----4---5---7p5-----10---8---7p5---------|
C|-0-0---0---0---0---0---0---0-----0-0---0---0-----0-0----0---0-------------|


Rhythm (palm mute) 
D|--------------------------------------------------------------------------|
A|--------------------------------------------------------------------------|
F|--------------------------------------------------------------------------|
C|-0-0--0--0--0--0--0--0--0--0--0--0--0--0--0--0--0--0>-----0-0-0-0-0>------|
G|-0-0--0--0--0--0--0--0--0--0--0--0--0--0--0--0--0--0>-----0-0-0-0-0>------|
C|-0-0--0--0--0--0--0--0--0--0--0--0--0--0--0--0--0--0>-----0-0-0-0-0>------|

Lead x6
D|-------17-----------17-------------17-------------17----------------------|
A|-------13--------------13-------------13-------------13-------------------|
F|-------16-----------------16-------------16-------------16----------------|
C|-00-00--------0-0-0----------0-0-0----------0-0-0-------------------------|
G|-00-00--------0-0-0----------0-0-0----------0-0-0-------------------------|
C|-00-00--------0-0-0----------0-0-0----------0-0-0-------------------------|


Rhythm (palm mute)x6
D|--------------------------------------------------------------------------|
A|--------------------------------------------------------------------------|
F|--------------------------------------------------------------------------|
C|-00000-000-0--0-0-0-00000--0-0-0-00000--0-0-0-00000-----------------------|
G|-00000-000-0--0-0-0-00000--0-0-0-00000--0-0-0-00000-----------------------|
C|-00000-000-0--0-0-0-00000--0-0-0-00000--0-0-0-00000-----------------------|

Tap to rate this tab
 
# A B C D E F G H I J K L M N O P Q R S T U V W X Y Z