Misc Unsigned Bands - Beyond The Shore - Thrown To The Sharks tab

Band: Beyond The Shore
Song: Thrown to the Sharks
Album: The Arctic Front

Tuning: Drop B [B F# B E G# C#]

Great song, by a great band.
It's not 100% perfect, there's some parts I don't know, but it should get you through.

Intro
0:00 - 0:42

GUITAR ONE - comes in after GUITAR TWO plays once

Riff 1

C#|------------------------------------------|
G#|------------------------------------------|
E |------------------------------------------|
B |-0~~~~~~~~-8~~~~~~~~-3~~~~~~~~-10~~~~~~~~-|
F#|-0~~~~~~~~-8~~~~~~~~-3~~~~~~~~-10~~~~~~~~-|
B |-0~~~~~~~~-8~~~~~~~~-3~~~~~~~~-10~~~~~~~~-|

Riff 2

C#|----------------------------------------------------------|
G#|----------------------------------------------------------|
E |----------------------------------------------------------|
B |----------------------------------------------------------|
F#|-0000--000--00-0000-8888--888--88-8888-3333--333--33-3333-|
B |-0000--000--00-0000-8888--888--88-8888-3333--333--33-3333-|
PM  ....  ...  .. .... ....  ...  .. .... ....  ...  .. ....

continued...

C#|---------------------------------|
G#|---------------------------------|
E |---------------------------------|
B |---------------------------------|
F#|-10101010--101010--1010-10101010-|
B |-10101010--101010--1010-10101010-|
PM  . . . .   . . .   . .  . . . .

Riff 1

C#|------------------------------------------|
G#|------------------------------------------|
E |------------------------------------------|
B |-0~~~~~~~~-8~~~~~~~~-3~~~~~~~~-10~~~~~~~~-|
F#|-0~~~~~~~~-8~~~~~~~~-3~~~~~~~~-10~~~~~~~~-|
B |-0~~~~~~~~-8~~~~~~~~-3~~~~~~~~-10~~~~~~~~-|

GUITAR TWO x4

C#|---------------------------------------------------|
G#|-10-10-10-10-10-10-10-10--11-11-11-11-11-11-11-11--|
E |---7--7--7--7--7--7--7--7---7--7--7--7--7--7--7--7-|
B |---------------------------------------------------|
F#|---------------------------------------------------|
B |---------------------------------------------------|

continued...

C#|-----------------------------------------------------------|
G#|-15--15--15--15--15--15--15--15---13-13-13-13-13-13-13-13--|
E |---10--10--10--10--10--10--10--10---9--9--9--9--9--9--9--9-|
B |-----------------------------------------------------------|
F#|-----------------------------------------------------------|
B |-----------------------------------------------------------|


VERSE 1 x4
0:43 - 0:53

GUITAR ONE

C#|-------------------------------------------------------------------------|
G#|-------------------------------------------------------------------------|
E |-------------------------------------------------------------------------|
B |-------------------------------------------------------------------------|
F#|-0-----------------0-----------------3-----------------5---------5-------|
B |-0-----------------0-----------------3-----------------5---------5-------|

GUITAR TWO

C#|-------------------------------------------------------------------------|
G#|-------------------------------------------------------------------------|
E |-------------------------------------------------------------------------|
B |----3h7p3-2h3-2h3-----3h7p3-2h3-2h3-----3h7p3-2h3-2h3-----3h7p3-----2h5p2|
F#|-000---------------000---------------333---------------555-------555-----|
B |-000---------------000---------------333---------------555-------555-----|
PM  ...               ...               ...               ...       ...


VERSE 2 x2
1:06 - 1:16

GUITAR ONE

C#|-----------------------------------------------------------|
G#|-----------------------------------------------------------|
E |-----------------------------------------------------------|
B |-----------------------------------------------------------|
F#|-5----7----8----5----7----8----8----10----8----3----8----7-|
B |---00---00---00---00---00---88---88----88---33---33---33---|
PM    ..   ..   ..   ..   ..   ..   ..    ..   ..   ..   ..


VERSE 3 x4
1:16 - 1:36

GUITAR ONE

C#|------------------------------------------------|
G#|------------------------------------------------|
E |------------------------------------------------|
B |---------------------------------------------10-|
F#|-000-000-000---0-7h8p7-8--88888-10--1010-7-8----|
B |-000-000-000---0-------8--88888-10--1010--------|
PM  ... ... ...   .          .....     . .


VERSE 4
1:36 - 1:55

GUITAR ONE

C#|----------------------------------------------------------------|
G#|----------------------------------------------------------------|
E |----------------------------------------------------------------|
B |-8----10---10/12-10-----12----12/14-12--15-15-15-17-15-14h15p14-|
F#|-8--8------------10--10-------------12--------------------------|
B |-8--8----8-------10--10----10-------12--------------------------|
PM     .    .           .     .          

continued...

C#|------------------------------------------------------------|
G#|------------------------------------------------------------|
E |------------------------------------------------------------|
B |-8----10---10/12-10-----12----12/14-12----------------------|
F#|-8--8------------10--10-------------12-0-00-000---0-00-0000-|
B |-8--8----8-------10--10----10-------12-0-00-000---0-00-0000-|
PM     .    .           .     .           . .. ...   . .. ....


PRE-CHORUS
1:57 - 2:21

GUITAR ONE

C#|-----------------------------------------------------|
G#|-----------------------------------------------------|
E |-----------------------------------------------------|
B |-0~~~~~~~~~~-8~~~~~~~~~~-3~~~~~~~~~~~~~-10~~~~~~~~~~-|
F#|-0~~~~~~~~~~-8~~~~~~~~~~-3~~~~~~~~~~~~~-10~~~~~~~~~~-|
B |-0~~~~~~~~~~-8~~~~~~~~~~-3~~~~~~~~~~~~~-10~~~~~~~~~~-|

GUITAR TWO

C#|-----------------------------------------------------|
G#|-----------------------------------------------------|
E |-10p9p7-[x8]-12p10p9-[x8]-14p12p10-[x8]-12p10p9-[x8]-|
B |-----------------------------------------------------|
F#|-----------------------------------------------------|
B |-----------------------------------------------------|


CHORUS - this part is wrong, but it still sounds okay
2:21 - 2:43

C#|------------------------------------|
G#|------------------------------------|
E |------------------------------------|
B |-0~---------------------------------|
F#|-0~--00-12~10~8~8~10~8~-3~-33-3-3h5-|
B |-0~--00---------8~------3~-33-------|
PM      ..                    ..


PRE-BREAKDOWN
2:43 - 2:50

GUITAR ONE

C#|----------------------------------------------|
G#|----------------------------------------------|
E |----------------------------------------------|
B |-0~~~~~~~~~~~~~~~~~~~~~~~~~~~~~~~~~-----------|
F#|-0~~~~~~~~~~~~~~~~~~~~~~~~~~~~~~~~~-----------|
B |-0~~~~~~~~~~~~~~~~~~~~~~~~~~~~~~~~~-----------|

GUITAR TWO

C#|----------------------------------------------|
G#|----------------------------------------------|
E |----------------------------------------------|
B |-0~--------------------0~------------------7*-|
F#|-0~-0-00000----0000-00-0~-0-00000----8-7-8----|
B |-0~-0-00000----0000-00-0~-0-00000----8--------|
PM     . .....    .... ..    . .....


BREAKDOWN x4
2:51 - 3:21

GUITAR ONE

C#|------------------------------------------------|
G#|------------------------------------------------|
E |------------------------------------------------|
B |-0~--------------------0~------------8~~---3~~--|
F#|-0~-0-00000----0000-00-0~-0-00000----8~~---3~~--|
B |-0~-0-00000----0000-00-0~-0-00000----8~~---3~~--|
PM     . .....    .... ..    . .....

GUITAR TWO

C#|------------------------------------------------|
G#|------------------------------------------------|
E |------------------------------------------------|
B |-0~--------------------0~---------------------7-|
F#|-0~-0-00000----0000-00-0~-0-00000----8-7-8-10---|
B |-0~-0-00000----0000-00-0~-0-00000----8-----10---|
PM     . .....    .... ..    . .....


PRE-OUTRO
3:21 - 3:23

BOTH GUITARS

C#|----------------------------------------------|
G#|----------------------------------------------|
E |----------------------------------------------|
B |-0~~~~~~~~~~~~~~~~~~~~~~~~~~~~~~~~~-----------|
F#|-0~~~~~~~~~~~~~~~~~~~~~~~~~~~~~~~~~-----------|
B |-0~~~~~~~~~~~~~~~~~~~~~~~~~~~~~~~~~-----------|


OUTRO x4
3:23 - 3:45

GUITAR ONE

C#|-------------------------------------------------------------------------|
G#|-------------------------------------------------------------------------|
E |-------------------------------------------------------------------------|
B |-------------------------------------------------------------------------|
F#|-0~~~~~~~~~~~~~~~~-0~~~~~~~~~~~~~~~~-3~~~~~~~~~~~~~~~~-5~~~~~~~~-5~~~~~~~|
B |-0~~~~~~~~~~~~~~~~-0~~~~~~~~~~~~~~~~-3~~~~~~~~~~~~~~~~-5~~~~~~~~-5~~~~~~~|

GUITAR TWO

C#|-------------------------------------------------------------------------|
G#|-------------------------------------------------------------------------|
E |-------------------------------------------------------------------------|
B |----3h7p3-2h3-2h3-----3h7p3-2h3-2h3-----3h7p3-2h3-2h3-----3h7p3-----2h5p2|
F#|-000---------------000---------------333---------------555-------555-----|
B |-000---------------000---------------333---------------555-------555-----|
PM  ...               ...               ...               ...       ...
Tap to rate this tab
 
# A B C D E F G H I J K L M N O P Q R S T U V W X Y Z