Misc Unsigned Bands - Alma Desnuda - Great Big Water tab

-------------------------------------------------------------------------------
			     GREAT BIG WATER - Alma Desnuda
-------------------------------------------------------------------------------
Tabbed by:alexxw

This is just the main riff for the intro and then the theme present in most of the 
song. If there is
sufficient interest I can tab more of it and more precisely.

Thanks Alma Desnuda for such a great song!

Tuning:Standard

INTRO RIFF

e|----3-3---2h3p2--5---3p2-----------------0-0-------------------------------|
B|----3-3------------------5p3-------------3-3-------------------------------|
G|----0-0----------------------4p2p0-------0-0-----0h2h4-2p0-2p0-------------|
D|----2-2----------------------------------2-2---0h2-------------2-----------|
A|----2-2-------------------------------3--3-3-------------------------------|
E|-0--0-0--------------------------------------------------------------------|

e|----3-3---2h3p2--5---3p2-----------------0-0-------------------------------|
B|----3-3------------------5p3-------------3-3-----------3-------------------|
G|----0-0----------------------4p2p0-------0-0-----0h2/4---4-2p0-------------|
D|----2-2----------------------------------2-2---0h2-------------2-----------|
A|----2-2-------------------------------3--3-3-------------------------------|
E|-0--0-0--------------------------------------------------------------------|

e|----3-3---2h3p2--5---3p2-----------------0-0-------10-12-10----------------|
B|----3-3------------------5p3-------------3-3--3/12----------12-10-8h10p8---|
G|----0-0----------------------4p2p0-------0-0-------------------------------|
D|----2-2----------------------------------2-2-------------------------------|
A|----2-2-------------------------------3--3-3-------------------------------|
E|-0--0-0--------------------------------------------------------------------|

THEN RIFF 2

e|---------------------------------------------------------------------------|
B|---------------------------------------------------------------------------|
G|---------------------------------------------------------------------------|
D|------9---7----7-----------------------------------------------------------|
A|---7-------10---7---7-10-7-10-7-------7--10----9-9--9h10p9-----------------|
E|----------------------------------8-8----------------------10--------------|


************************************

| /   slide up
| \   slide down
| h   hammer-on
| p   pull-off
| ~   vibrato
| +   harmonic
| x   Mute note
| b   Bend
| pb  Pre-bend
| br  Bend release
| pbr Pre-bend release
| brb Bend release bend

************************************
Tap to rate this tab
 
# A B C D E F G H I J K L M N O P Q R S T U V W X Y Z