Misc Unsigned Bands - Forgiven - You Are The One tab

intro: guitar2
----------------------------------------------------------------------------|
----------------------------------------------------------------------------|
----4-------4-------4-------4-----------------------------------------------|
-545-545-545-545-545-545-545-545--------------------------------------------|
7-------5-------3-------5-------7-------------------------------------------|
----------------------------------------------------------------------------|
you  are  the  one  who  saved  me  from  it
-----------------------------------------------------------------------------|
-----------------------------------------------------------------------------|
--------4------------4-----------4-----------4-------------------------------|
--5-4-5--5-4-5--5-4-5-5-4-5-5-4-5-5-4-5-5-4-5-5-4-5--------------------------|
7-------------5------------3-----------5-----------7-------------------------|
-----------------------------------------------------------------------------|
-----------------------------------------------------------------------------|
you  are  the  one  who  died  for  me
-----------------------------------------------------------------------------|
-----------------------------------------------------------------------------|
--------4------------4-----------4-----------4-------------------------------|
--5-4-5--5-4-5--5-4-5-5-4-5-5-4-5-5-4-5-5-4-5-5-4-5--------------------------|
7-------------5------------3-----------5-----------7-------------------------|
-----------------------------------------------------------------------------|
-----------------------------------------------------------------------------|
then play this:
-------------------------------------------------------------|
-------------------------------------------------------------|
--------4-------4~-------------------------------------------|
--5-4-5---5-4-5---5-4-5----------5-4-5-----------------------|
7-------5------------------------------3~--------------------|
-------------------------------------------------------------|
chorus:guitar 1
you   are    you     are
---------------------------------------------------------------|
---------------------------------------------------------------|
4-4-x------7-7-7-7-x-------------------------------------------|
4-4-x-5-5x-7-7-7-7-x-7-7-7-------------------------------------|
2-2-x-5-5x-5-5-5-5-x-7-7-7-------------------------------------|
------3-3x-----------5-5-5-------------------------------------|
 you  are    you      are
---------------------------------------------------------------|
---------------------------------------------------------------|
4-4-x------7-7-7-7-x-------------------------------------------|
4-4-x-5-5x-7-7-7-7-x-7-7-7-------------------------------------|
2-2-x-5-5x-5-5-5-5-x-7-7-7-------------------------------------|
------3-3x-----------5-5-5-------------------------------------|
  you  are    you       are
---------------------------------------------------------------|
---------------------------------------------------------------|
4-4-x------7-7-7-7-x-------------------------------------------|
4-4-x-5-5x-7-7-7-7-x-7-7-7-------------------------------------|
2-2-x-5-5x-5-5-5-5-x-7-7-7-------------------------------------|
------3-3x-----------5-5-5-------------------------------------|
you    are   the    one  we call king
----------------------------------------------------------------|
----------------------------------------------------------------|
4-4-x------7-7-7-7-x--------------------------------------------|
4-4-x-5-5x-7-7-7-7-x-7-7-7~-------------------------------------|
2-2-x-5-5x-5-5-5-5-x-7-7-7~-------------------------------------|
------3-3x-----------5-5-5~-------------------------------------|

middle 1:guitar 2
d                 d
you are my one and only king
 a                  a
we will gladly step beside you
g                    g
we will obey your ways
a                            g
we will convert all who try and defy your name

middle 2:guitar 2
a           g                       d
you are the light at the end of my tunnel
a       g          d                  g
you are my religion, my decision, my ambition
g       d             a
you are the one i call king
g              d          a
you are the one i call king
a            g         d           e
you are the rain that falls on my face
a                   a minor
i cant get enough of you
 c                     a
you are like a unstoppable fire
g                 a d
your love is unbreakable
         d
let every one see

middle 3:guitar 2
c              d   a
you are like a mighty flood
d          a               a
you died for our sins then rose again
 c            d             g
your love is the worlds answer for peace
g        d   a
your love is irresistible
a   a               a      a
now let it shine, let it shine

outro: guitar 1 first time, 2nd time guitar 2
you     are    you    are    the   one   we   call     king
---------------------------------------------------------------------------|
------6-5-6----------6-5-6----------6-5-6----------6-5-5-------------------|
--7-5-------5-7--7-5-------5-7--7-5-------5-7--7-5-------5-7---------------|
5---------------5--------------5--------------5-------------5--------------|
---------------------------------------------------------------------------|
---------------------------------------------------------------------------|

----------------------------------------------------------------------------|
----------------------------------------------------------------------------|
4-4-x-------7-7-7-7-x-------------------------------------------------------|
4-4-x-5-5-x-7-7-7-7-x-7-7~--------------------------------------------------|
2-2-x-5-5-x-5-5-5-5-x-7-7~--------------------------------------------------|
------3-3-x-----------5-5~--------------------------------------------------|

not telling the solo.
the run through:
guitar 1 electric
guitar 2 acoustic

intro x1 g2
chorus x3 g1
middle 1 x1 g2
chorus x2 g1
middle 2 x1 g2
chorus x2 g1+g2
middle 3 x1 g2
chorus x1 g1
intro x2 g1
solo x1 g1
chorus x1 g1+g2
solo x1 g2
outro x1 g2
outro x1 g1
Tap to rate this tab
 
# A B C D E F G H I J K L M N O P Q R S T U V W X Y Z