Misc Unsigned Bands - The Fire Is Still Young - Atmosphere tab

Song: Atmosphere
Album: Atmosphere (Single)
Year: 2007
Tuning: Standard

Intro:
e---------------------------------|
B---------------------------------|
G----9--9-9-5--5-5-5--5-5-7--7-7--|
D----9--9-9-5--5-5-5--5-5-7--7-7--|
A----7--7-7-3--3-3-5--5-5-5--5-5--|
E------------------3--3-3---------|

e----------------------------|
B----------------------------|
G----9--9-9-5--5-5-5---------|
D----9--9-9-5--5-5-5---------|
A----7--7-7-3--3-3-5---------|
E------------------3---------|

Verse:
e---------------------------------|
B---------------------------------|
G---------------------------------|
D----9--9-X-5--5-X------X-7--7-X--|
A----7--7-X-3--3-X-5--5-X-5--5-X--|
E---------X------X-3--3-X------X--|

e----------------------------|
B----------------------------|
G----9--9-X-5--5-X-5---------|
D----9--9-X-5--5-X-5---------|
A----7--7-X-3--3-X-5---------|
E------------------3---------|

Chorus:
e-----------------------------|
B-----------------------------|
G-----------------------------|
D---9--9-9---9--9-9--9-9-9-9--|
A---7--7-7---7--7-7--7-7-7-7--|
E-----------------------------|

e-----------------------------|
B-----------------------------|
G-----------------------------|
D---5--5-5---5--5-5--5-5-5-5--|
A---3--3-3---3--3-3--3-3-3-3--|
E-----------------------------|

e-----------------------------|
B-----------------------------|
G-----------------------------|
D-----------------------------|
A---5--5-5---5--5-5--5-5-5-5--|
E---3--3-3---3--3-3--3-3-3-3--|

e------------------------------------|
B------------------------------------|
G------------------------------------|
D---7-7-7-7-7-7-7-7-7-7-7-7-7-7-7-7--|
A---5-5-5-5-5-5-5-5-5-5-5-5-5-5-5-5--|
E------------------------------------|
Tap to rate this tab
 
# A B C D E F G H I J K L M N O P Q R S T U V W X Y Z