Misc Unsigned Bands - Going Underground - Listen To The Stereo tab

===============================================================================
Musica: Listen To The Stereo
Banda: Going Under Ground
===============================================================================


Feito por (Tabbled by) : Kinhus-kun
E-Mail: Kinhus-kun@hotmail.com

|My First TAB|

Gente, essa a primeira vez que faco uma TAB. Espero que gostem!!!
Ah,e me perdoem caso ouverem erros.

Afinacao (Tuning): EADGBE

Intro:

e|----------------------------------------------------------------------------------------|
B|----------------------------------------------------------------------------------------|
G|----------------------------------------------------------7-------7-------7-------7-----|
D|--------------55555555--4444--8888--99999999------------7---7---7---7---7---7---7---7---|
A|----55555555--33333333--2222--6666--77777777--7     --5-----------------------0---------|
E|----33333333----------------------------------5(x15)----------8-------7-----------------|
      ........  ........  ....  ....  ........  .

Listen to The Stereo, Tonight Tonight Tonight...


e|-------------------------------------------------------|
B|-------------------------------------------------------|
G|-----------------5------4-----8------9--------5----7---|
D|--------5------5---5---------------9---9----5---5--7---|
A|------5---5--3--------2----\6----7--------3--------5---|
E|----3--------------------------------------------------|

e|----------------------------|
B|----------------------------|
G|----7\9--7\11--7\10--7\14---|
D|----x\x--x\x---x\x---x\x----|
A|----5\7--5\9---5\12--5\12---|
E|----------------------------|

Listen to The Stereo, Around Around Around...


Refrao (Chorus)

Guitar 1
e|---------------------------------------------------------------------------|
B|---------------------------------------------------------------------------|
G|--------------55555555--4444--8888--99999999----------777--555--444--222---|
D|----55555555--55555555--4444--8888--99999999--7-------777--555--444--222---|
A|----55555555--33333333--2222--6666--77777777--7     --555--333--222--000---|
E|----33333333----------------------------------5(x15)-----------------------|

Listen to The Stereo, Tonight Tonight Tonight...

Guitar 2
e|----------------------------------------------------------------------------------|
B|----------------------------------------------------------------------------------|
G|--------------55555555--4444--8888--99999999---------77---999--111111--12121212---|
D|----55555555--55555555--4444--8888--99999999--7------xx---xxx--x-x-x---x-x-x-x----|
A|----55555555--33333333--2222--6666--77777777--7     -55---777--9-9-9---14141414---|
E|----33333333----------------------------------5(x15)------------------------------|



e|----------------------------------------------------------|
B|----------------------------------------------------------|
G|--------------55555555--4444--8888--99999999--55555---7---|
D|----55555555--55555555--4444--8888--99999999--55555---7---|
A|----55555555--33333333--2222--6666--77777777--33333---5---|
E|----33333333----------------------------------------------|

Listen to The Stereo, Around Around Around...

Verso (Verse)
e|-------------------|      e|------------------|
B|-------------------|      B|------------------|
G|-------------------|(x6)  G|------------------|
D|---55555--55555----|      D|------------------|
A|---55555--55555----|      A|------------------|
E|---33333--33333----|      E|---\6-------------|

e|-------------------|      e|------------------|
B|-------------------|      B|------------------|
G|-------------------|(x2)  G|------------------|
D|---55555--55555----|      D|---\11-10---------|
A|---55555--55555----|      A|----------11-10~/-|
E|---33333--33333----|      E|------------------|

e|-------------------|
B|-------------------|
G|-------------------|(x2)
D|---55555--55555----|
A|---55555--55555----|
E|---33333--33333----|

Pre-Refrao (Prechorus)
e|----------------------------------------------------------------------------------------------|
B|----------------------------------------------------------------------------------------------|
G|---------------------------------------------------------------------------55--7777-----------|
D|----------------6\7-6-7-6------8\9-8-9-8------10\11-10-11-10--------12\13--55--7777-----------|
A|--------------------------7--------------9-------------------10------------33--5555-----------|
E|---12/----------------------7--------------9--------------------10----------------------------|

Refrao (Chorus)

Guitar 1
e|---------------------------------------------------------------------------|
B|---------------------------------------------------------------------------|
G|--------------55555555--4444--8888--99999999----------777--555--444--222---|
D|----55555555--55555555--4444--8888--99999999--7-------777--555--444--222---|
A|----55555555--33333333--2222--6666--77777777--7     --555--333--222--000---|
E|----33333333----------------------------------5[x15]-----------------------|

Listen to The Stereo, Tonight Tonight Tonight...

Guitar 2
e|----------------------------------------------------------------------------------|
B|----------------------------------------------------------------------------------|
G|--------------55555555--4444--8888--99999999---------77---999--111111--12121212---|
D|----55555555--55555555--4444--8888--99999999--7------xx---xxx--x-x-x---x-x-x-x----|
A|----55555555--33333333--2222--6666--77777777--7     -55---777--9-9-9---14141414---|
E|----33333333----------------------------------5[x15]------------------------------|



e|----------------------------------------------------------|
B|----------------------------------------------------------|
G|--------------55555555--4444--8888--99999999--55555---7---|
D|----55555555--55555555--4444--8888--99999999--55555---7---|
A|----55555555--33333333--2222--6666--77777777--33333---5---|
E|----33333333----------------------------------------------|

Listen to The Stereo, Around Around Around...

Solo em Power Acorde (Solo In Power Chord)

e|----------------------------------------------------------------|
B|----------------------------------------------------------------|
G|----88888--\8--8--8---/888--\12-12-12--/10-10-10--\13-13--\12---|
D|----xxxxx--\x--x--x---/xxx--\X--x--x---/x--x--x---\x--x---\x----|
A|----66666--\10-10-10--/666--\10-10-10--/8--8--8---\11-11--\10---|
E|----------------------------------------------------------------|


Solo:Não consegui Tablar!!!

Verse 2

e|-------------------|      |--------------|
B|-------------------|      |--------------|
G|-------------------|(x2)  |--------------|
D|---55555--55555----|      |--------------|
A|---55555--55555----|      |-------(5)~---|
E|---33333--33333----|      |---3-2--------|

e|-------------------|
B|-------------------|
G|-------------------|(x2)
D|---55555--55555----|
A|---55555--55555----|
E|---33333--33333----|

Keyboard Break 1:

Verse:
e|-------------------|
B|-------------------|
G|-------------------|
D|---55555--55555----|
A|---55555--55555----|
E|---33333--33333----|


Pre-Refrão (Prechorus)
e|----------------------------------------------------------------------------------------------|
B|----------------------------------------------------------------------------------------------|
G|---------------------------------------------------------------------------55--7777-----------|
D|----------------6\7-6-7-6------8\9-8-9-8------10\11-10-11-10--------12\13--55--7777-----------|
A|--------------------------7--------------9-------------------10------------33--5555-----------|
E|---12/----------------------7--------------9--------------------10----------------------------|

Keyboard Break 2:


e|-----------------------------------------------------|
B|-----------------------------------------------------|
G|--------------55555555--4444--8888--99999999---------|
D|----55555555--55555555--4444--8888--99999999--7------|
A|----55555555--33333333--2222--6666--77777777--7     -|
E|----33333333----------------------------------5(x15)-|
      ........  ........  ....  ....  ........  .

e|----------------------------|
B|----------------------------|
G|----7\9--7\11--7\10--7\14---|
D|----x\x--x\x---x\x---x\x----|
A|----5\7--5\9---5\12--5\12---|
E|----------------------------|

Refrão Final(Chorus)

Guitar 1
e|---------------------------------------------------------------------------|
B|---------------------------------------------------------------------------|
G|--------------55555555--4444--8888--99999999----------777--555--444--222---|
D|----55555555--55555555--4444--8888--99999999--7-------777--555--444--222---|
A|----55555555--33333333--2222--6666--77777777--7     --555--333--222--000---|
E|----33333333----------------------------------5[x15]-----------------------|

Listen to The Stereo, Tonight Tonight Tonight...

Guitar 2
e|----------------------------------------------------------------------------------|
B|----------------------------------------------------------------------------------|
G|--------------55555555--4444--8888--99999999---------77---999--111111--12121212---|
D|----55555555--55555555--4444--8888--99999999--7------xx---xxx--x-x-x---x-x-x-x----|
A|----55555555--33333333--2222--6666--77777777--7     -55---777--9-9-9---14141414---|
E|----33333333----------------------------------5[x15]------------------------------|



e|--------------------------------------------------------------|
B|--------------------------------------------------------------|
G|--------------55555555--4444--8888--99999999--55555---777777--|
D|----55555555--55555555--4444--8888--99999999--55555---777777--|
A|----55555555--33333333--2222--6666--77777777--33333---555555--|
E|----33333333--------------------------------------------------|

Listen to The Stereo, Around Around Around...

e|-----------------------------------------------------|
B|-----------------------------------------------------|
G|--------------55555555--4444--8888--99999999---------|
D|----55555555--55555555--4444--8888--99999999--7------|
A|----55555555--33333333--2222--6666--77777777--7     -|
E|----33333333----------------------------------5(x15)-|
      ........  ........  ....  ....  ........  .

Listen to The Stereo, Tonight Tonight Tonight...

e|----------------------------|
B|----------------------------|
G|----7\9--7\11--7\10--7\14---|
D|----x\x--x\x---x\x---x\x----|
A|----5\7--5\9---5\12--5\12---|
E|----------------------------|

END:
e|-----------------------------------------------------------------------|
B|---\13----13----14----14----16----16----14-----\20--18----18-----16/---|
G|-------12----12----12----12----12----12----12----------17----17--15/---|
D|-----------------------------------------------------------------------|
A|-----------------------------------------------------------------------|
E|-----------------------------------------------------------------------|

Listen to The Stereo, Around Around Around...




Legenda/Key:



.  = Palm Note
\  = Slide Down
/  = Slide Up
() = Ghost Note
~  = Vibrato

--------------------------------------------------------------------------------


Nao esta perfeito mais da pra fazer um otimo COVER!! Desculpem-me pelo SOLO!!! N 
Consegui! :-P

Nao deu pra fazer video cover, afinal estou sem camera! Mas Enfim! Espero que gostem e 
bom divertimento!!

VERY FUN!!



PROXIMAS TABS

Cherryblossom - Sakura Rock
Cherryblossom - Dive to WORLD
SXoXu - Funny Sunny Day!!!

--------------------------------------------
Tap to rate this tab
 
# A B C D E F G H I J K L M N O P Q R S T U V W X Y Z