Song name
# A B C D E F G H I J K L M N O P Q R S T U V W X Y Z

Misc Unsigned Bands - Kelsey - Take Me Away tab

-------------------------------------------------------------------------------
			     Take Me Away - Kelsey
-------------------------------------------------------------------------------
Tabbed by: rockobsesse
Email: kelseyluo@hotmail.com

Tuning: Standard

Intro/Verse

e|-----------------------------------------------------------------------------------|
B|-----------------------------------------------------------------------------------|
G|-----------------------------------------------------------------------------------|
D|---5---4---5---4---5----5---4---5---4---5----5---4---5---4---5----5---4---5---4---5|
A|-----------------------------------------------------------------------------------|
E|33---3---3---3---3---33---3---3---3---3---00---0---0---0---0---00---0---0---0---0--|

e|-----------------------------------------------------------------------------------|
B|-----------------------------------------------------------------------------------|
G|-----------------------------------------------------------------------------------|
D|---5---4---5---4---5----5---4---5---4---5----5---4---5---4---5----5---4---5---4---5|
A|33---3---3---3---3---55---5---5---5---5--------------------------------------------|
E|------------------------------------------33---3---3---3---3---33---3---3---3---3--|

and i'm dying inside of myself
i feel suffocated, incompetent with the world
no such compelling lies, just the utter truth
what more do you want?
i wonder if this is just a faze
why am i always so unsatisfied?
is it wrong to hate myself?
i feel like a failure, and i want an escape

Chorus

will someone take me away
so i can run away to another place
i don't belong here, is this where i'll stay?
was i born to lose and screw up my life
or is this all just bad luck, karma's excuse?
can someone take me away
 
  G+                 E-                 C+                 D+
e|3-33-3333-333-3333-0-00-0000-000-0000-3-33-3333-333-3333-5-55-5555-555-5555--------|
B|3-33-3333-333-3333-0-00-0000-000-0000-5-55-5555-555-5555-7-77-7777-777-7777--------|
G|0-00-0000-000-0000-0-00-0000-000-0000-5-55-5555-555-5555-7-77-7777-777-7777--------|
D|0-00-0000-000-0000-2-22-2222-222-2222-5-55-5555-555-5555-7-77-7777-777-7777--------|
A|2-22-2222-222-2222-2-22-2222-222-2222-3-33-3333-333-3333-5-55-5555-555-5555--------|
E|3-33-3333-333-3333-0-00-0000-000-0000----------------------------------------------|

Verse 2

time it's a terrible thing, that eats me up alive
and i can't control it, so i'll drown under its pressure
fall under it's spell, and i won't ever wake up
but if, i change my ways, turn them around
get myself back up out of the hole
cuz i'm not a failure, and the world is my escape

Chorus
 
Bridge

e|8-7------8-7----------8-7------8-7-----------------7-------------7-----------------|
B|----10-8-----10-8-7-8-----10-8-----10-8-7-8---8-10---10-8---8-10---10--------------|
G|--------------------------------------------7-------------7-----------8------------|
D|-----------------------------------------------------------------------------------|
A|-----------------------------------------------------------------------------------|
E|-----------------------------------------------------------------------------------|

e|8-7------8-7----------8-7------8-7----------------10-------------------------------|
B|----10-8-----10-8-7-8-----10-8-----10-8-7-8-10-12----12-10h12p10-12-10--8--7-------|
G|-----------------------------------------------------------------------------------|
D|-----------------------------------------------------------------------------------|
A|-----------------------------------------------------------------------------------|
E|-----------------------------------------------------------------------------------|

e|---------------------------------------------------\\\\----------------------------|
B|---------------------------------------------------\\\\----------------------------|
G|----------777-----------777-----------777----------\\\\----------------------------|
D|5555-5555-777-5555-5555-777-5555-5555-777-5555-555-\\\\----------------------------|
A|5555-5555-555-5555-5555-555-5555-5555-555-5555-555-\\\\----------------------------|
E|3333-3333-----3333-3333-----3333-3333-----3333-333-\\\\----------------------------|

Chorus

Outro

  G+                 E-                 C+                 D+
e|3-33-3333-333-3333-0-00-0000-000-0000-3-33-3333-333-3333-5-55-5555-555-5555--------|
B|3-33-3333-333-3333-0-00-0000-000-0000-5-55-5555-555-5555-7-77-7777-777-7777--------|
G|0-00-0000-000-0000-0-00-0000-000-0000-5-55-5555-555-5555-7-77-7777-777-7777--------|
D|0-00-0000-000-0000-2-22-2222-222-2222-5-55-5555-555-5555-7-77-7777-777-7777--------|
A|2-22-2222-222-2222-2-22-2222-222-2222-3-33-3333-333-3333-5-55-5555-555-5555--------|
E|3-33-3333-333-3333-0-00-0000-000-0000----------------------------------------------|

e|-----------777-888-77-----------------777-888-77-----------------------------------|
B|888-101010------------1010-888-101010------------1010------------------------------|
G|-----------------------------------------------------------------------------------|
D|-----------------------------------------------------------------------------------|
A|-----------------------------------------------------------------------------------|
E|-----------------------------------------------------------------------------------|

e|-----------------------------------------------------------------------------------|
B|7h8p7---7h8p7-------7h8p7---7h8p7--------------------------------------------------|
G|----------------7-9-----------------7-9--------------------------------------------|
D|------9-------9-----------9-------9------------------------------------------------|
A|-----------------------------------------------------------------------------------|
E|-----------------------------------------------------------------------------------|

e|-----------777-888-77-----------------777-888-77-----------------------------------|
B|888-101010------------1010-888-101010------------1010------------------------------|
G|-----------------------------------------------------------------------------------|
D|-----------------------------------------------------------------------------------|
A|-----------------------------------------------------------------------------------|
E|-----------------------------------------------------------------------------------|

e|7h8p7-8h7p8-7h8p7-8h7p8-7h8p78-----------------------------------------------------|
B|-------------------------------7h8p7-8h7p8-7h8p7-8h7p8-7h8p78----------------------|
G|-----------------------------------------------------------------------------------|
D|-----------------------------------------------------------------------------------|
A|-----------------------------------------------------------------------------------|
E|-----------------------------------------------------------------------------------|

e|-----------777-888-77-----------------777-888-77-----------------------------------|
B|888-101010------------1010-888-101010------------1010------------------------------|
G|-----------------------------------------------------------------------------------|
D|-----------------------------------------------------------------------------------|
A|-----------------------------------------------------------------------------------|
E|-----------------------------------------------------------------------------------|

e|-----------------------------------------------------------------------------------|
B|7h8p7---7h8p7-------7h8p7---7h8p7--------------------------------------------------|
G|----------------7-9-----------------7-9--------------------------------------------|
D|------9-------9-----------9-------9------------------------------------------------|
A|-----------------------------------------------------------------------------------|
E|-----------------------------------------------------------------------------------|

e|----------7h8p7----------------10-7h87-8h78-7h87-8h78-7----------------------------|
B|8----8-10-------10-8-10-10h12------------------------------------------------------|
G|---7-------------------------------------------------------------------------------|
D|-----------------------------------------------------------------------------------|
A|-----------------------------------------------------------------------------------|
E|-----------------------------------------------------------------------------------|

e|10-8-7----8-7----------10-8-7----8-7-----------------------------------------------|
B|-------10-----10-8-7-8--------10-----10-8-7-8--------------------------------------|
G|-----------------------------------------------------------------------------------|
D|-----------------------------------------------------------------------------------|
A|-----------------------------------------------------------------------------------|
E|-----------------------------------------------------------------------------------|

e|------10-------10-----------10-------10--------------------------------------------|
B|7h8p7----7h8p7----8-7-7h8p7----7h8p7----8-7----------------------------------------|
G|-----------------------------------------------------------------------------------|
D|-----------------------------------------------------------------------------------|
A|-----------------------------------------------------------------------------------|
E|-----------------------------------------------------------------------------------|

e|10-8-7----8-7----------10-8-7----8-7-----------------------------------------------|
B|-------10-----10-8-7-8--------10-----10-8-7-8--------------------------------------|
G|-----------------------------------------------------------------------------------|
D|-----------------------------------------------------------------------------------|
A|-----------------------------------------------------------------------------------|
E|-----------------------------------------------------------------------------------|

e|-----------------------------------------------------------------------------------|
B|-----------------------------------------------------------------------------------|
G|----------777-----------7777-------------------------------------------------------|
D|5555-5555-777-5555-5555-7777-------------------------------------------------------|
A|5555-5555-555-5555-5555-5555-------------------------------------------------------|
E|3333-3333-----3333-3333------------------------------------------------------------|

e|10-8-7----8-7----------10-8-7----8-7-----------------------------------------------|
B|-------10-----10-8-7-8--------10-----10-8-7-8--------------------------------------|
G|-----------------------------------------------------------------------------------|
D|-----------------------------------------------------------------------------------|
A|-----------------------------------------------------------------------------------|
E|-----------------------------------------------------------------------------------|

e|------10-------10-----------10-------10--------------------------------------------|
B|7h8p7----7h8p7----8-7-7h8p7----7h8p7----8-7----------------------------------------|
G|-----------------------------------------------------------------------------------|
D|-----------------------------------------------------------------------------------|
A|-----------------------------------------------------------------------------------|
E|-----------------------------------------------------------------------------------|

e|10-8-7----8-7----------10-8-7----8-7-----------------------------------------------|
B|-------10-----10-8-7-8--------10-----10-8-7-8--------------------------------------|
G|-----------------------------------------------------------------------------------|
D|-----------------------------------------------------------------------------------|
A|-----------------------------------------------------------------------------------|
E|-----------------------------------------------------------------------------------|


e|7h8p7-8h7p8-7h8p7-8h7p8-7h8p78-----------------------------------------------------|
B|-------------------------------7h8p7-8h7p8-7h8p7-8h7p8-7h8p78----------------------|
G|-----------------------------------------------------------------------------------|
D|-----------------------------------------------------------------------------------|
A|-----------------------------------------------------------------------------------|
E|-----------------------------------------------------------------------------------|

  G+                 E-                 C+                 D+                 G+
e|3-33-3333-333-3333-0-00-0000-000-0000-3-33-3333-333-3333-5-55-5555-555-5555-3------|
B|3-33-3333-333-3333-0-00-0000-000-0000-5-55-5555-555-5555-7-77-7777-777-7777-3------|
G|0-00-0000-000-0000-0-00-0000-000-0000-5-55-5555-555-5555-7-77-7777-777-7777-0------|
D|0-00-0000-000-0000-2-22-2222-222-2222-5-55-5555-555-5555-7-77-7777-777-7777-0------|
A|2-22-2222-222-2222-2-22-2222-222-2222-3-33-3333-333-3333-5-55-5555-555-5555-2------|
E|3-33-3333-333-3333-0-00-0000-000-0000---------------------------------------3------|


************************************

| /   slide up
| \   slide down
| h   hammer-on
| p   pull-off
| ~   vibrato
| +   harmonic
| x   Mute note
| b   Bend
| pb  Pre-bend
| br  Bend release
| pbr Pre-bend release
| brb Bend release bend
Tap to rate this tab
 
# A B C D E F G H I J K L M N O P Q R S T U V W X Y Z