Song name
# A B C D E F G H I J K L M N O P Q R S T U V W X Y Z

Misc Unsigned Bands - Ran - Pandangan Pertama tab

Pandangan Pertama (Live Acoustic) - RAN
Standard Tuning

Intro/Verse:

E--3----1----3----1--------|
B--5----1----5----1--------|
G--4----2----4----2--------| 2x
D--5----3----5----3--------|
A--3----3----3----3--------|
E--x----1----x----1--------|


Pre-Chorus:

E--x----x----x----x----x----x----x----1----|
B--8----6----8----6----8----6----x----1----|
G--7----5----7----5----7----5----9----2----|
D--9----7----9----7----9----7----10---3----|
A--7----5----7----5----7----5----8----3----|
E--x----x----x----x----x----x----x----1----|


Chorus:

E--3----x----x----x----x----x----x----x----x----1----3-------------|
B--5----3----x----5----3----3----10---8----6----1----5-------------|
G--4----2----9----5----3----3----9----7----5----2----4-------------|
D--5----3----9----5----3----2----10---9----7----3----5-------------|
A--3----2----7----x----x----x----8----7----5----3----3-------------|
E--x----x----x----5----3----3----x----x----x----1----x-------------|
Tap to rate this tab
 
# A B C D E F G H I J K L M N O P Q R S T U V W X Y Z