Song name
# A B C D E F G H I J K L M N O P Q R S T U V W X Y Z

Misc Unsigned Bands - The Influencers - Bleeding Colours tab

Tabbed by: Nick H

e|----------------------------------------------------------------------------|
B|----------------------------------------------------------------------------|
G|------6---------6------6---------------------6---------6------6-------------|
D|------------9-----------------9---7-----------------9----------------9--7---|
A|----------------------------------------------------------------------------|
E|--5~-----5~--------5~-----5~-------------5~-----5~---------5~-----5~--------|

e|----------------------------------------------------------------------------|
B|-----2-------0---2~------2-----0----------2------0---2--------2------0------|
G|---------2------------------2-----2~----------2------------------2------2~--|
D|----------------------------------------------------------------------------|
A|----------------------------------------------------------------------------|
E|--2~----------------2~------------------2-----------------2-----------------|


http://www.reverbnation.com/theinfluencers
Tap to rate this tab
 
# A B C D E F G H I J K L M N O P Q R S T U V W X Y Z