Misc Unsigned Bands - Kelsey - Prove Them Wrong tab

-------------------------------------------------------------------------------
			    Prove Them Wrong - Kelsey
-------------------------------------------------------------------------------
Tabbed by: rockobsesse
Email: kelseyluo@hotmail.com

Tuning: Standard

Verse 1

Prove them wrong, if it's the last thing i'll do
i've set a standard for myself that i must use
i've given up, but not for long
and i get back up, cuz a life withough a dream is distraught

  Bb+                               D-                           C+
e|1-11-11-111-1-11-1-11-11-111-1-11-5-55-55-555-5-55-5-55-55-555-3-33-------|
B|3-33-33-333-3-33-3-33-33-333-3-33-6-66-66-666-6-66-6-66-66-666-5-55-------|
G|3-33-33-333-3-33-3-33-33-333-3-33-7-77-77-777-7-77-7-77-77-777-5-55-------|
D|3-33-33-333-3-33-3-33-33-333-3-33-7-77-77-777-7-77-7-77-77-777-5-55-------|
A|1-11-11-111-1-11-1-11-11-111-1-11-5-55-55-555-5-55-5-55-55-555-3-33-------|
E|--------------------------------------------------------------------------|
  
  G-                A+              D-                           C+
e|3-33-33-333-3-33-5-55-55-555-5-55-5-55-55-555-5-55-5-55-55-555-3-33-------|
B|3-33-33-333-3-33-5-55-55-555-5-55-6-66-66-666-6-66-6-66-66-666-5-55-------|
G|3-33-33-333-3-33-6-66-66-666-6-66-7-77-77-777-7-77-7-77-77-777-5-55-------|
D|5-55-55-555-5-55-7-77-77-777-7-77-7-77-77-777-7-77-7-77-77-777-5-55-------|
A|5-55-55-555-5-55-7-77-77-777-7-77-5-55-55-555-5-55-5-55-55-555-3-33-------|
E|3-33-33-333-3-33-5-55-55-555-5-55-----------------------------------------|

Chorus

and you can say what you say, go on and predict my future
and i will work my heart out, accomplish all the dreams i've created
cuz i wasn't brought up, to be brought down this way
  
  Bb+               C+                D-                A+
e|1-11-111-111-1111-3-33-333-333-3333-5-55-555-555-5555-5-55-555-555-5555---|
B|3-33-333-333-3333-5-55-555-555-5555-6-66-666-666-6666-5-55-555-555-5555---|
G|3-33-333-333-3333-5-55-555-555-5555-7-77-777-777-7777-6-66-666-666-6666---|
D|3-33-333-333-3333-5-55-555-555-5555-7-55-555-555-5555-7-77-777-777-7777---|
A|1-11-111-111-1111-3-33-333-333-3333-5-55-555-555-5555-7-77-777-777-7777---|
E|------------------------------------------------------5-55-555-555-5555---|

  G-                A+                D-                             C+
e|3-33-333-333-3333-5-55-555-555-5555-5-55-555-555-5555-5-55-555-555-3333---|
B|3-33-333-333-3333-5-55-555-555-5555-6-66-666-666-6666-6-66-666-666-5355---|
G|3-33-333-333-3333-6-66-666-666-6666-7-77-777-777-7777-7-77-777-777-5555---|
D|5-55-555-555-5555-7-77-777-777-7777-7-77-777-777-7777-7-77-777-777-5555---|
A|5-55-555-555-5555-7-77-777-777-7777-5-55-555-555-5555-5-55-555-555-3333---|
E|3-33-333-333-3333-5-55-555-555-5555---------------------------------------|

Verse 2

time is ticking, when will it stop
one more year to go, before my time is up
and you've been told before, you'll never make it far
but the future's in your hands, just give it all you got
just believe in you, that's all you gotta do

  Bb+                               D-                           C+
e|1-11-11-111-1-11-1-11-11-111-1-11-5-55-55-555-5-55-5-55-55-555-3-33-------|
B|3-33-33-333-3-33-3-33-33-333-3-33-6-66-66-666-6-66-6-66-66-666-5-55-------|
G|3-33-33-333-3-33-3-33-33-333-3-33-7-77-77-777-7-77-7-77-77-777-5-55-------|
D|3-33-33-333-3-33-3-33-33-333-3-33-7-77-77-777-7-77-7-77-77-777-5-55-------|
A|1-11-11-111-1-11-1-11-11-111-1-11-5-55-55-555-5-55-5-55-55-555-3-33-------|
E|--------------------------------------------------------------------------|
  
  G-                A+              D-                           C+
e|3-33-33-333-3-33-5-55-55-555-5-55-5-55-55-555-5-55-5-55-55-555-3-33-------|
B|3-33-33-333-3-33-5-55-55-555-5-55-6-66-66-666-6-66-6-66-66-666-5-55-------|
G|3-33-33-333-3-33-6-66-66-666-6-66-7-77-77-777-7-77-7-77-77-777-5-55-------|
D|5-55-55-555-5-55-7-77-77-777-7-77-7-77-77-777-7-77-7-77-77-777-5-55-------|
A|5-55-55-555-5-55-7-77-77-777-7-77-5-55-55-555-5-55-5-55-55-555-3-33-------|
E|3-33-33-333-3-33-5-55-55-555-5-55-----------------------------------------|

  Bb+              C+               D-               A+
e|1-11-11-111-1-11-3-33-33-333-3-33-5-55-55-555-5-55-5-55-55-555-5----------|
B|3-33-33-333-3-33-5-55-55-555-5-55-6-66-66-666-6-66-5-55-55-555-5----------|
G|3-33-33-333-3-33-5-55-55-555-5-55-7-77-77-777-7-77-6-66-66-666-6----------|
D|3-33-33-333-3-33-5-55-55-555-5-55-7-77-77-777-7-77-7-77-77-777-7----------|
A|1-11-11-111-1-11-3-33-33-333-3-33-5-55-55-555-5-55-7-77-77-777-7----------|
E|---------------------------------------------------5-55-55-555-5----------|

Chorus

Bridge
e|--------5-------3---5-3h5-6-5-3---5---------------------------------------|
B|5-6-5-3---3-5-6---6-------------6---3-5-6-5-3-2-3-------------------------|
G|--------------------------------------------------------------------------|
D|--------------------------------------------------------------------------|
A|--------------------------------------------------------------------------|
E|--------------------------------------------------------------------------|

e|10-8-------10-8-----------------------------------------------------------|
B|-----11-10------11-10-8-10-11-10-8----10----------------------------------|
G|-----------------------------------10----7-9-10-9-7-10-------9-10-9-10----|
D|-------------------------------------------------------11-12-----------12-|
A|--------------------------------------------------------------------------|
E|--------------------------------------------------------------------------|

last Chorus is handclapped

Outro

e|------6-------------5-----------------------------------------------------|
B|--3-6---6-3-----2-5---5-2---3---------------------------------------------|
G|3-----------3-2-----------2-----------------------------------------------|
D|--------------------------------------------------------------------------|
A|--------------------------------------------------------------------------|
E|--------------------------------------------------------------------------|


************************************

| /   slide up
| \   slide down
| h   hammer-on
| p   pull-off
| ~   vibrato
| +   harmonic
| x   Mute note
| b   Bend
| pb  Pre-bend
| br  Bend release
| pbr Pre-bend release
| brb Bend release bend

************************************
Tap to rate this tab
 
# A B C D E F G H I J K L M N O P Q R S T U V W X Y Z