Song name
# A B C D E F G H I J K L M N O P Q R S T U V W X Y Z

Misc Unsigned Bands - Madness Becomes Method - Rabbit Hole tab

JOSH GUITAR

VERSE
E---------------------------|
B--------6------------------|
G--7-5-7---7-5h7p5-----5-3--|
D------------------7-5-5-3--|
A---------------------------|
E---------------------------|


CHORUS
E---------------------|
B---------------------|
G--7-7-7-5-7-7-7------|
D--7-7-7-5-7-7-7-5-3--|
A--5-5-5-3-5-5-5-5-3--|
E----------------3-1--|

E---------------------------------------------------|
B---------------------------------------------------|
G--------------------------12-12---------10-10------|
D--12-12-X-X-X-X-10-10-X-X-12-12-X-X-X-X-10-10------|
A--12-12-X-X-X-X-10-10-X-X-10-10-X-X-X-X--8--8-X-X--|
E--10-10-X-X-X-X--8--8-X-X-------X-X-X-X-------X-X--|
Tap to rate this tab
 
# A B C D E F G H I J K L M N O P Q R S T U V W X Y Z