Misc Unsigned Bands - Pearl Kyoudai - Hitori No Tame No Lullaby tab

-----------------------------------------------------------------------------
	        Hitori no tame no lullaby - Pearl Ky˘dai
-----------------------------------------------------------------------------
Tabbed by: X-ChrisCross-X
Email: wildwolf86@gmail.com

Tuning: Standard

e|--------------------------------------------------------------------------|
B|---8-5-8-5-8/10-----------------------------------------------------------|
G|----------------5--5-7-5-7/9\---------------------------------------------|
D|-5------------------------------------------------------------------------|
A|--------------------------------------------------------------------------|
E|--------------------------------------------------------------------------|

e|---7-7-7/8--7--5----------------------------------------------------------|
B|------------------8---5---------------------------------------------------|
G|-5----------------------7-5-5-5-5---5-7-5-7/9\----------------------------|
D|----------------------------------7---------------------------------------|
A|--------------------------------------------------------------------------|
E|--------------------------------------------------------------------------|

e|--------------------------------------------------------------------------|
B|-6/8-5-8-8/11-------------------------------------------------------------|
G|--------------5-5-7-5-7/9-5-----------------------------------------------|
D|--------------------------------------------------------------------------|
A|--------------------------------------------------------------------------|
E|--------------------------------------------------------------------------|

e|---------------------------------------------7----------------------------|
B|-6/8-5-8-8/11---------------8p5--6/8-8-5-8-10---8-------------------------|
G|----------------5-5-7-5---------------------------------------------------|
D|--------------------------------------------------------------------------|
A|--------------------------------------------------------------------------|
E|--------------------------------------------------------------------------|

e|--------------------------------------------------------------------------|
B|----------------------8-----8h10-8-----------------------8----------------|
G|-5---5---5-7-7b-5-7/9~-------------7\5--5-7-5-7b-7---7/9------------------|
D|---7---7------------------------------------------------------------------|
A|--------------------------------------------------------------------------|
E|--------------------------------------------------------------------------|

e|-----------------------------------------------------------------8-7------|
B|-8h10-8------------------------------------------8---/8-8-8-8-8------8----|
G|--------9\5-5---5-7-/9-5----5---5-7-7b-5---5-7/9-----------------------5--|
D|--------------7---------------7----------7--------------------------------|
A|--------------------------------------------------------------------------|
E|--------------------------------------------------------------------------|

e|--------------------------------------------------------------------------|
B|-6------------------------------------------------------------------------|
G|---9-5------5--5-5--------------------------------------------------------|
D|-------7------7-----------------------------------------------------------|
A|--------------------------------------------------------------------------|
E|--------------------------------------------------------------------------|

Chords: fingerpicking here sounds good :)

e|-7--5--3------------------------------------------------------------------|
B|-8--5--3---example:--8-----8----------------3-5---------------------------|
G|-7--7--5-----------------7----7---7---5---5-------------------------------|
D|-9--7--5---------------9--------7-------5---------------------------------|
A|-7--5--3-------------7--------5-------3-----------------------------------|
E|--------------------------------------------------------------------------|

Thanks for checking my tab! Have fun!

************************************

| /   slide up
| \   slide down
| h   hammer-on
| p   pull-off
| ~   vibrato
| +   harmonic
| x   Mute note
| b   Bend
| pb  Pre-bend
| br  Bend release
| pbr Pre-bend release
| brb Bend release bend

************************************
Tap to rate this tab
 
# A B C D E F G H I J K L M N O P Q R S T U V W X Y Z