Song name
# A B C D E F G H I J K L M N O P Q R S T U V W X Y Z

Misc Unsigned Bands - Nico Stai - Miss Friday Acoustic tab

-------------------------------------------------------------------------------
			     Miss Friday - Nico Stai
-------------------------------------------------------------------------------
Originally Tabbed by: Rasmus Johns
Edited by: Corbin Montague

Tuning: Standard (Capo. 2nd Fret)
(This is tabbed in relationship to the Capo)

Refer to this video: http://www.youtube.com/watch?v=zoR39J-OMpQ


Intro:

e|------------------|-----------------|------------------|-----------------|
B|------------------|-----------------|------------------|-----------------|
G|------0-------0---|-----0-------0---|------0-------0---|-----0-------0---|
D|----9---0---7---0-|---5---5---7---0-|----9---0---7---0-|---5---5---5---0-|
A|-10-------9-------|-7-------9-------|-10-------9-------|-7-------7-------|
E|------------------|-----------------|------------------|-----------------|

e|------------------|-----------------|-----------------|-----------------|
B|------------------|-----------------|-----------------|-----------------|
G|------0-------0---|-----0-------0---|-----0-------0---|-----------------|
D|----9---0---7---0-|---5---5---4---4-|---2---2---4---4-|---9---9---9---9-|
A|-10-------9-------|-7-------5-------|-3-------5-------|-10--10--10--10--|
E|------------------|-----------------|-----------------|-----------------|


Verse:

  Oh   Miss  Friday...
e|------------------|-----------------|------------------|-----------------|
B|------------------|-----------------|------------------|-----------------|
G|------0-------0---|-----0-------0---|------0-------0---|-----0-------0---|
D|----9---0---7---0-|---5---5---7---0-|----9---0---7---0-|---5---5---5---0-|
A|-10-------9-------|-7-------9-------|-10-------9-------|-7-------7-------|
E|------------------|-----------------|------------------|-----------------|

  I  know you're...
e|------------------|-----------------|------------------|-----------------|
B|------------------|-----------------|------------------|-----------------|
G|------0-------0---|-----0-------0---|------0-------0---|-----0-------0---|
D|----9---0---7---0-|---5---5---7---0-|----9---0---7---0-|---5---5---5---0-|
A|-10-------9-------|-7-------9-------|-10-------9-------|-7-------7-------|
E|------------------|-----------------|------------------|-----------------|


1st Chorus:

  Wake  Wake up!...
e|------------------|-----------------|------------------|-----------------|
B|------------------|-----------------|------------------|-----------------|
G|------0-------0---|-----0-------0---|------0-------0---|-----0-------0---|
D|----9---0---7---0-|---5---5---7---0-|----9---0---7---0-|---5---5---5---0-|
A|-10-------9-------|-7-------9-------|-10-------9-------|-7-------7-------|
E|------------------|-----------------|------------------|-----------------|

  to  live.  You got  a lot...
e|------------------|-----------------|-----------------|------------------|
B|------------------|-----------------|-----------------|------------------|
G|------0-------0---|-----0-------0---|-----0-------0---|-----0-------0----|
D|----9---0---7---0-|---5---5---7---0-|---2---2---2---2-|---4---4---4---4--|
A|-10-------9-------|-7-------9-------|-3-------3-------|-5-------5--------|
E|------------------|-----------------|-----------------|------------------|

       Cut    you   into  three  I'm gonna  stay...
e|-----------------|------------------|
B|-----------------|------------------|
G|-----0-------0---|-----0-------0----|
D|---2---2---2---2-|---4---4---4---4--|
A|-3-------3-------|-5-------5--------|
E|-----------------|------------------|


Repeat:
Intro x1
Verse x1


2nd Chorus:

  Wake  Wake up!...
e|------------------|-----------------|------------------|-----------------|
B|------------------|-----------------|------------------|-----------------|
G|------0-------0---|-----0-------0---|------0-------0---|-----0-------0---|
D|----9---0---7---0-|---5---5---7---0-|----9---0---7---0-|---5---5---5---0-|
A|-10-------9-------|-7-------9-------|-10-------9-------|-7-------7-------|
E|------------------|-----------------|------------------|-----------------|

  to  live.  You got  a lot...
e|------------------|-----------------|-----------------|------------------|
B|------------------|-----------------|-----------------|------------------|
G|------0-------0---|-----0-------0---|-----0-------0---|-----0-------0----|
D|----9---0---7---0-|---5---5---7---0-|---2---2---2---2-|---4---4---4---4--|
A|-10-------9-------|-7-------9-------|-3-------3-------|-5-------5--------|
E|------------------|-----------------|-----------------|------------------|

       Cut    you   into  three         Bye  Bye  Bye    Misery  I'm gonna...
e|-----------------|------------------|-----------------|------------------|
B|-----------------|------------------|-----------------|------------------|
G|-----0-------0---|-----0-------0----|-----0-------0---|-----0-------0----|
D|---2---2---2---2-|---4---4---4---4--|---2---2---2---2-|---4---4---4---4--|
A|-3-------3-------|-5-------5--------|-3-------3-------|-5-------5--------|
E|-----------------|------------------|-----------------|------------------|

Repeat:
Intro x1
Verse x1

End on:
e|-----------------|
B|-----------------|
G|-----------------|
D|---9---9---9---9-|
A|-10--10--10--10--|
E|-----------------|

************************************

| /   slide up
| \   slide down
| h   hammer-on
| p   pull-off
| ~   vibrato
| +   harmonic
| x   Mute note
| b   Bend
| pb  Pre-bend
| br  Bend release
| pbr Pre-bend release
| brb Bend release bend

************************************
Tap to rate this tab
 
# A B C D E F G H I J K L M N O P Q R S T U V W X Y Z