Misc Unsigned Bands - Snowing - Sam Rudich tab

-------------------------------------------------------------------------------
			     SAM RUDICH - Sam Rudich
-------------------------------------------------------------------------------
Tabbed by: TheSneakinSnail
Email: Drover700@yahoo.com

Tuning: Standard

Tabbed by ear and totally not how to really play it, but it gets the job done
for one guitarist playing two guitar parts i'd say.

Verse:

(I've been wasting...)
                     PM----
e|4-2-0---------0----0------|
B|------0-2-5-0-0----0------|
G|--------------2----2------|
D|--------------2----2-(x6)-|
A|--------------0----0------|
E|--------------------------|

                     PM-----
e|4-2-0---------0----0------|
B|------0-2-5-0-0----0------|
G|--------------1----1------|
D|--------------2----2-(x6)-|
A|--------------2----2------|
E|--------------0----0------|


Let's Say Pre-Chorus

e|---9---7---4-2-----9---7-4-0-----9---7---4-2-------5---4-----|
B|-------------------------------------------------------------|
G|-------------------------------------------------------------|
D|-------------------------------------------------------------|
A|---------------4-------------0-------------------------------|
E|0--------------------------------------------2---------------|


Chorus?
(You're not awake...)

e|------------------------------0-|
B|------------------------------0-|
G|6---x-8-8---x-9-9---x-8-8---x-1-|
D|------------------------------2-|
A|0---x-0-0---x-0-0---x-0-0---x-2-|
E|------------------------------0-|

e|0-----0------0------0-------|
B|0-----0------5------0-------|
G|1-----2------6------1-------|
D|2-----2------6------2-------|
A|2-----0------4------2-------|
E|0-------------------0-------|


Let's Say Pre-Chorus Second Time chords 

    BA da dadaBA da BOPBOPBOP   Ba da dadaBA  BWADA

e|0-----------0---------------0-----------2---------|
B|0-----------5---------------0-----------2---------|
G|1-----------6---------------2-----------2---------|
D|2-----------6---------------2-----------4---------|
A|2-----------4---------------0-----------4---------|
E|0---------------------------------------2---------|


Outro: Half Time

(I FEEL NOTHING...)

e|4-2-0-----------0-----0---0---0---0---|
B|------0-2-5-0---0-----0---0---0---0---|
G|----------------9-----11--9---11--9---|
D|----------------11----11--11--11--11--|
A|----------------0-----0---0---0---0---|
E|--------------------------------------|

e|4-2-0-----------0-----0---0---0---0---|
B|------0-2-5-0---0-----0---0---0---0---|
G|----------------9-----11--9---11--9---|
D|----------------9-----9---9---9---9---|
A|----------------11----11--11--11--11--|
E|----------------0-----0---0---0---0---|

************************************

| /   slide up
| \   slide down
| h   hammer-on
| p   pull-off
| ~   vibrato
| +   harmonic
| x   Mute note
| b   Bend
| pb  Pre-bend
| br  Bend release
| pbr Pre-bend release
| brb Bend release bend

************************************
Tap to rate this tab
 
# A B C D E F G H I J K L M N O P Q R S T U V W X Y Z