Misc Unsigned Bands - Skrillex - Scary Monsters And Nice Sprites tab

This is the dubstep song Scary Monsters and Nice Sprites by Skrillex


e|-------------------------------------------------------------------------|
B|--------------------15---------------------------------------------------|
G|------------15~-------17-15----------------------------------------------|
D|--17-15-17-------17----------------------15-13-12-------15----------12---|
A|-----------------------------------13-12----------15-13----13----13------|
E|12------------------------------13~----------------------------15--------|

e|-------------------------|
B|-20----------18----------|
G|----19-15-------15-------|
D|----------17-------17-15-|
A|-------------------------|
E|-------------------------|
Tap to rate this tab
 
# A B C D E F G H I J K L M N O P Q R S T U V W X Y Z