Song name
# A B C D E F G H I J K L M N O P Q R S T U V W X Y Z

Misc Unsigned Bands - The Paper Kites - Bloom tab

Bloom by The Paper Kites 

Tabbed by: Kevintsy
Email: Kevint13@gmail.com

First ever tab submitted. Got a few requests from the people on youtube. Such an 
awesome song though!  Enjoy ;)

Download it for free and rate! on: http://www.triplejunearthed.com.au/thepaperkites

Intro
Guitar 1

   1   +   2   +   3   +   4   +   1   +   2   +   3   +   4   +   

e|---------------------------------------------------------------------------|
B|-1---------1-----------1-------1-------1-------1-------1-------------------|
G|-------0-------0---------------------------0---------0-----0---------------|
D|-----2-------2-------2-------0-------0-------0---0h2-----2---0-------------|
A|-0-------0-------0-------0h2-----2h3-----3---------------------------------|
E|---------------------------------------------------------------------------|

   1   +   2   +   3   +   4   +   1   +   2   +   3   +   4   +   

e|---------------------------------------------------------------------------|
B|-3---------3-----1-------1-------0---------0-----0---------0---------------|
G|-------0---------------0---------------0---------------0-------------------|
D|-----0-------0-------0-------0-------0-------0-------0-------0-------------|
A|---------------------------------------------------------------------------|
E|-3-------3-------3-------3-------3-------3-------3-------3-----------------|

   1   +   2   +   3   +   4   +   1   +   2   +   3   +   4   +   

e|---------------------------------------------------------------------------|
B|-1---------1-----1-------------1-------1-------1-------1-------------------|
G|-------0---------------0-------------------0---------0-----0---------------|
D|-----2-------2-------2-------0-------0-------0---0h2-----2---0-------------|
A|-0-------0-------0-------0h2-----2h3-----3---------------------------------|
E|---------------------------------------------------------------------------|

   1   +   2   +   3   +   4   +   1   +   2   +   3   +   4   +   

e|---------------------------------------------------------------------------|
B|-3---------3-----1---------1-----0-----------------------------------------|
G|-------0---------------0---------------------------------------------------|
D|-----0-------0-------0-------0---------------------------------------------|
A|---------------------------------------------------------------------------|
E|-3-------3-------3-------3-------3-----------------------------------------|

              In the morning when i wake...



Guitar 2 (During Intro) (Capo 6)

   1   +   2   +   3   +   4   +   1   +   2   +   3   +   4   +   

e|-----5/7-----5\3-----0---------------5/7-----5\3---------------------|
B|------------------------------------------------------3--------------|
G|-----2/4-----2\0---------------------2/4-----2\0---------------------|
D|---------------------2--------------------------------0--------------|
A|---------------------------------------------------------------------|
E|---------------------------------------------------------------------|

   

Verse/Chorus
Guitar 1

 1   +   2   +   3   +   4   +   1   +   2   +   3   +   4   +   

e|---------------------------------------------------------------------------|
B|-1---------1-----1-------------1-------1-------1-------1-------------------|
G|-------0---------------0-------------------0---------0-----0---------------|
D|-----2-------2-------2-------0-------0-------0---0h2-----2---0-------------|
A|-0-------0-------0-------0h2-----2h3-----3---------------------------------|
E|---------------------------------------------------------------------------|

   1   +   2   +   3   +   4   +   1   +   2   +   3   +   4   +   

e|---------------------------------------------------------------------------|
B|-3---------3-----1---------1-----0-----------------------------------------|
G|-------0---------------0---------------------------------------------------|
D|-----0-------0-------0-------0---------------------------------------------|
A|---------------------------------------------------------------------------|
E|-3-------3-------3-------3-------3-----------------------------------------|


Guitar 2 Solo 

1   +   2   +   3   +   4   +   1   +   2   +   3   +   4   +   

e|----------------------3--------------------------------------------|
B|--------------3h5------------5--3----------------------------------|
G|-----3/4--------------0----------------3/4-------------------------| Play Twice
D|--------------0h2------------2--0----------------------------------| x2
A|-----1/2-------------------------------1/2-------------------------|
E|-------------------------------------------------------------------|

1   +   2   +   3   +   4   +   1   +   2   +   3   +   4   +   

e|----------------------3---------------5-----5/7--------------------|
B|--------------3h5------------5--3----------------------------------|
G|-----3/4--------------0---------------2-----2/4--------------------| 
D|--------------0h2------------2--0----------------------------------| 
A|-----1/2-----------------------------------------------------------|
E|-------------------------------------------------------------------|


1   +   2   +   3   +   4   +   1   +   2   +   3   +   4   +   

e|----------------------3--------------------------------------------|
B|--------------3h5------------5--3------3/4-------------------------|
G|-----3/4--------------0--------------------------------------------| 
D|--------------0h2------------2--0------1/2-------------------------| 
A|-----1/2-----------------------------------------------------------|
E|-------------------------------------------------------------------|
   

1   +   2   +   3   +   4   +   1   +   2   +   3   +   4   +   

e|-----------------3------3h5----5/7---------------------------------|
B|-----3-----5---------------------------5---------------------------|
G|-----------------0------0h2----2/4---------------------------------| 
D|-----0-----2---------------------------2---------------------------| 
A|-------------------------------------------------------------------|
E|-------------------------------------------------------------------|


1   +   2   +   3   +   4   +   1   +   2   +   3   +   4   +   

e|-----5/7-----5\3-----0---------------5/7-----5\3-------------------|
B|------------------------------------------------------3------------|
G|-----2/4-----2\0---------------------2/4-----2\0-------------------|
D|---------------------2--------------------------------0------------|
A|-------------------------------------------------------------------|
E|-------------------------------------------------------------------|


1   +   2   +   3   +   4   +   1   +   2   +   3   +   4   +   

e|-----------------3------3h5----5/7---------------------------------|
B|-----3-----5---------------------------5---------------------------|
G|-----------------0------0h2----2/4---------------------------------| 
D|-----0-----2---------------------------2---------------------------| 
A|-------------------------------------------------------------------|
E|-------------------------------------------------------------------|


1   +   2   +   3   +   4   +   1   +   2   +   3   +   4   +   

e|-----5/7-----5\3-----0---------------5/7-----5\3-------------------|
B|------------------------------------------------------3------------|
G|-----2/4-----2\0---------------------2/4-----2\0-------------------|
D|---------------------2--------------------------------0------------|
A|-------------------------------------------------------------------|
E|-------------------------------------------------------------------|



In the morning when I wake
And the sun is coming through,
Oh, you fill my lungs with sweetness,
And you fill my head with you.

Shall I write it in a letter?
Shall I try to get it down?
Oh, you fill my head with pieces
Of a song I can't get out.

Can I be close to you?
Ooh-oo-oo-ooh, ooh.
Can I be close to you?
Ooh, ooh.

Can I take it to a morning 
Where the fields are painted gold
And the trees are filled with memories
Of the feelings never told?

When the evening pulls the sun down,
And the day is almost through,
Oh, the whole world is sleeping,
And my world is you.

Can I be close to you?
(Ah) ooh (aah), ooh (aah).
Can I be close to you?
(Ah) ooh (aah), ooh (aah).

*whistling*

Can I be close to you?
(Ah) ooh (aah), ooh (aah).
Can I be close to you?
(Ah) ooh (aah), ooh (aah).

Can I be close to you?
Ooh, ooh.

************************************

| /   slide up
| \   slide down
| h   hammer-on
| p   pull-off
| ~   vibrato
| +   harmonic
| x   Mute note
| b   Bend
| pb  Pre-bend
| br  Bend release
| pbr Pre-bend release
| brb Bend release bend

************************************  
Tap to rate this tab
 
# A B C D E F G H I J K L M N O P Q R S T U V W X Y Z