Song name
# A B C D E F G H I J K L M N O P Q R S T U V W X Y Z

Misc Unsigned Bands - Tyler Ward And The Co - Heartbeat chords

Highlighted       Show chord diagrams
-----------------------------------------------------------------------------
			     HEARTBEAT - Tyler Ward and The CO
-----------------------------------------------------------------------------



Intro:


e|------------------8--------7-----------------------------------------------|
B|------------8--------8-----8-----------------------------------------------|
G|-------7h9-----9-----------------------------------------------------------|
D|---------------------------5-----------------------------------------------|
A|---------------------------------------------------------------------------|
E|---------------------------------------------------------------------------|


| h   hammer-on


C
Is this just beginning
G
Is this just a heartbeat
C
is this just a first breath
G
or is it just second chance


e   C   G
Oh, oh, oh 2x


C
is this just a moment
G
why we keepin' secrets
C
hold on till you taste it
G
hold on till you feel it


e   C   G
Oh, oh, oh 2x


               a                C
i dont want to leave this heart alone
               G               D
i just want to go wherever you go


               C         G          D
I just want to comeback, pick it up oh
     e               D
it's love that we're fighting for
C             G               D
come back and pick it up with you

               C         G          D
I just want to comeback, pick it up oh
     e               D
it's love that we're fighting for
C             G               D
come back and pick it up with you


e   C   G
Oh, oh, oh    

C
i know we're getting closer
G
this could be forever
C
please tell me you see it
G
tell me you believe it


e   C   G
Oh, oh, oh 2x

is it just a heartbeat
is it just heart beat beat (in the background of the oh, oh, oh)

               a                C
i dont want to leave this heart alone
               G               D
i just want to go wherever you go


               C         G          D
I just want to comeback, pick it up oh
     e               D
it's love that we're fighting for
C             G               D
come back and pick it up with you

               C         G          D
I just want to comeback, pick it up oh
     e               D
it's love that we're fighting for
C             G               D
come back and pick it up with you


e   C   G
Oh, oh, oh 2x
Tap to rate this tab
 
# A B C D E F G H I J K L M N O P Q R S T U V W X Y Z