Misc Unsigned Bands - North Eastern Revenge - Led It Go tab

My band's song, called Led It Go. Any questions or concerns? northeasternrevenge@gmail.com

Key:
2-2 (Two numbers separated by a hyphen) - Straight 8ths

----------------------------------------------------------------------------

E --------------------------|
B --------------------------|
G --------------------------|
D ------------5-7-----------|
A ------5-6-7---------------|
E 5-5-8---------------------|

Then play this before each drum fill

E ----------------------------------|
B ----------------------------------|
G ----------------------------------|
D -7-7------------------------------|
A -7-7------------------------------|
E -5-5------------------------------|

That's pretty much all there is to it!


ŠNER 2009-2010
Tap to rate this tab
 
# A B C D E F G H I J K L M N O P Q R S T U V W X Y Z