Song name
# A B C D E F G H I J K L M N O P Q R S T U V W X Y Z

Misc Unsigned Bands - Niko - Night Of Fire tab

-------------------------------------------------------------------------------
			     NIGHT OF FIRE - Niko
-------------------------------------------------------------------------------
Tabbed by: HawK89

Tuning: Standard


This Guitar Tab is based off a guitar player's (NikumanGuitar) vision of how this song would
be played on the guitar.
The Guitar Tab below has been created by me (HawK89) and NOT supplied or copied from anyone else.

This will NOT include the Solo done by NikumanGuitar.
This is how i heard the song and may be missing notes.

Missing areas/riffs are incomplete, but you are welcome to leave a comment on how 
you think it is played.



e|----------------------|
B|----------------------|
G|--6----8--------------|
D|--4----6--------------|
A|----------------------|
E|----------------------|

e|---------------------------------------------|
B|---------------------------------------------|
G|-----------------------6-----6---------------|
D|-8-----8-----8-----8---4--4--4----6-----6----|
A|-6--6--6--6--6--6--6--------------4--4--4----|
E|---------------------------------------------|

e|----------------------|
B|----------------------|
G|-------6----8---------|
D|-8-----4----6---------|
A|-6--------------------|
E|----------------------|

e|---------------------------------------------|
B|---------------------------------------------|
G|---------------------------------------------|
D|-8-----8-----8-----8----11--10--9--8--6------|
A|-6--6--6--6--6--6--6-----9---8--7--6--4------|
E|---------------------------------------------|


e|---------------------------------------------|
B|---------------------------------------------|
G|-----------------------6-----6----8-----8----|
D|-8-----8-----8-----8---4--4--4----6--6--6----|
A|-6--6--6--6--6--6--6-------------------------|
E|---------------------------------------------|

E|---6------------------------------------------|
B|-----9--7--6h7p6--6h7p6----(-t14--p6--h9--)x6-|
G|-8-----------------------8--------------------|
D|----------------------------------------------|
A|----------------------------------------------|
E|----------------------------------------------|


e|---------------------------------------------|
B|---------------------------------------------|
G|-----------------------6-----6----8-----8----|
D|-8-----8-----8-----8---4--4--4----6--6--6----|
A|-6--6--6--6--6--6--6-------------------------|
E|---------------------------------------------|

E|---6------------------------------------------|
B|-----9--7--6h7p6--6h7p6----(-t14--p6--h9--)x6-|
G|-8-----------------------8--------------------|
D|----------------------------------------------|
A|----------------------------------------------|
E|----------------------------------------------|

Below is played over a few times.

E|---6------------------------------------------|
B|-----9--7--6h7p6--6h7p6-----------------------|
G|-8-----------------------8-(-t16--p8--h11-)x6-|
D|----------------------------------------------|
A|----------------------------------------------|
E|----------------------------------------------|

E|---6------------------------------------------|
B|-----9--7--6h7p6--6h7p6----(-t14--p6--h9--)x6-|
G|-8-----------------------8--------------------|
D|----------------------------------------------|
A|----------------------------------------------|
E|----------------------------------------------|

Below is seperate from the above repeat.
repeat below twice.

e|---------------------------------------------|
B|---------------------------------------------|
G|-----------------------6-----6---------------|
D|-8-----8-----8-----8---4--4--4----6-----6----|
A|-6--6--6--6--6--6--6--------------4--4--4----|
E|---------------------------------------------|

E|---6------------------------------------------|
B|-----9--7--6h7p6--6h7p6----(-t14--p6--h9--)x6-|
G|-8-----------------------8--------------------|
D|----------------------------------------------|
A|----------------------------------------------|
E|----------------------------------------------|

Below is the Incomplete Riff which is played twice.

e|------------------------|
B|------------------------|
G|------------------------|
D|------------------------|
A|------------------------|
E|------------------------|

Below is played after the Incomplete.
Repeat 4 times.

e|---------------------------------------------------------------|
B|---------------------------------------------------------------|
G|---------------------------------------------------------------|
D|-8-----8-----8-----8--4-----4-----4-----4--6-----6-----6-----6-|
A|-6--6--6--6--6--6--6--2--2--2--2--2--2--2--4--4--4--4--4--4--4-|
E|---------------------------------------------------------------|

e|-------------------|
B|-------------------|
G|-8----8-8-8-6-5----|
D|-6----6-6-6-4-3----|
A|-------------------|
E|-------------------|

Repeat below twice.

E|---6------------------------------------------|
B|-----9--7--6h7p6--6h7p6-----------------------|
G|-8-----------------------8-(-t16--p8--h11-)x6-|
D|----------------------------------------------|
A|----------------------------------------------|
E|----------------------------------------------|

E|---6------------------------------------------|
B|-----9--7--6h7p6--6h7p6----(-t14--p6--h9--)x6-|
G|-8-----------------------8--------------------|
D|----------------------------------------------|
A|----------------------------------------------|
E|----------------------------------------------|

Repeat below twice.

e|---------------------------------------------|
B|---------------------------------------------|
G|-----------------------6-----6---------------|
D|-8-----8-----8-----8---4--4--4----6-----6----|
A|-6--6--6--6--6--6--6--------------4--4--4----|
E|---------------------------------------------|

E|---6------------------------------------------|
B|-----9--7--6h7p6--6h7p6----(-t14--p6--h9--)x6-|
G|-8-----------------------8--------------------|
D|----------------------------------------------|
A|----------------------------------------------|
E|----------------------------------------------|

Below is the Incomplete Riff which is played twice.

e|------------------------|
B|------------------------|
G|------------------------|
D|------------------------|
A|------------------------|
E|------------------------|

Repeat below 4 times.

e|---------------------------------------------------------------|
B|---------------------------------------------------------------|
G|---------------------------------------------------------------|
D|-8-----8-----8-----8--4-----4-----4-----4--6-----6-----6-----6-|
A|-6--6--6--6--6--6--6--2--2--2--2--2--2--2--4--4--4--4--4--4--4-|
E|---------------------------------------------------------------|

e|-------------------|
B|-------------------|
G|-8----8-8-8-6-5----|
D|-6----6-6-6-4-3----|
A|-------------------|
E|-------------------|

Repeat below twice.

E|---6------------------------------------------|
B|-----9--7--6h7p6--6h7p6-----------------------|
G|-8-----------------------8-(-t16--p8--h11-)x6-|
D|----------------------------------------------|
A|----------------------------------------------|
E|----------------------------------------------|

E|---6------------------------------------------|
B|-----9--7--6h7p6--6h7p6----(-t14--p6--h9--)x6-|
G|-8-----------------------8--------------------|
D|----------------------------------------------|
A|----------------------------------------------|
E|----------------------------------------------|

-----------
|  BREAK! |
-----------
Repeat below 4 times.

e|---------------------------------------------------------------|
B|---------------------------------------------------------------|
G|---------------------------------------------------------------|
D|-8-----8-----8-----8--4-----4-----4-----4--6-----6-----6-----6-|
A|-6--6--6--6--6--6--6--2--2--2--2--2--2--2--4--4--4--4--4--4--4-|
E|---------------------------------------------------------------|

e|-------------------|
B|-------------------|
G|-8----8-8-8-6-5----|
D|-6----6-6-6-4-3----|
A|-------------------|
E|-------------------|

Repeat below twice.

E|---6------------------------------------------|
B|-----9--7--6h7p6--6h7p6-----------------------|
G|-8-----------------------8-(-t16--p8--h11-)x6-|
D|----------------------------------------------|
A|----------------------------------------------|
E|----------------------------------------------|

E|---6------------------------------------------|
B|-----9--7--6h7p6--6h7p6----(-t14--p6--h9--)x6-|
G|-8-----------------------8--------------------|
D|----------------------------------------------|
A|----------------------------------------------|
E|----------------------------------------------|

Seperate from Above

e|----------------------|
B|----------------------|
G|-------6----8---------|
D|-8-----4----6---------|
A|-6--------------------|
E|----------------------|

e|---------------------------------------------|
B|---------------------------------------------|
G|-----------------------6-----6---------------|
D|-8-----8-----8-----8---4--4--4----6-----6----|
A|-6--6--6--6--6--6--6--------------4--4--4----|
E|---------------------------------------------|

e|----------------------|
B|----------------------|
G|-------6----8---------|
D|-8-----4----6---------|
A|-6--------------------|
E|----------------------|

e|---------------------------------------------|
B|---------------------------------------------|
G|---------------------------------------------|
D|-8-----8-----8-----8----11--10--9--8--6------|
A|-6--6--6--6--6--6--6-----9---8--7--6--4------|
E|---------------------------------------------|

NikumanGuitar Solo

e|------------------------|
B|------------------------|
G|------------------------|
D|------------------------|
A|------------------------|
E|------------------------|

After Solo
Repeat below twice.

e|---------------------------------------------|
B|---------------------------------------------|
G|-----------------------6-----6---------------|
D|-8-----8-----8-----8---4--4--4----6-----6----|
A|-6--6--6--6--6--6--6--------------4--4--4----|
E|---------------------------------------------|

E|---6------------------------------------------|
B|-----9--7--6h7p6--6h7p6----(-t14--p6--h9--)x6-|
G|-8-----------------------8--------------------|
D|----------------------------------------------|
A|----------------------------------------------|
E|----------------------------------------------|

Below is the Incomplete Riff which is played twice.

e|------------------------|
B|------------------------|
G|------------------------|
D|------------------------|
A|------------------------|
E|------------------------|

Repeat Below until end.

E|---6------------------------------------------|
B|-----9--7--6h7p6--6h7p6-----------------------|
G|-8-----------------------8-(-t16--p8--h11-)x6-|
D|----------------------------------------------|
A|----------------------------------------------|
E|----------------------------------------------|

E|---6------------------------------------------|
B|-----9--7--6h7p6--6h7p6----(-t14--p6--h9--)x6-|
G|-8-----------------------8--------------------|
D|----------------------------------------------|
A|----------------------------------------------|
E|----------------------------------------------|

************************************

| /   slide up
| \   slide down
| h   hammer-on
| p   pull-off
| ~   vibrato
| +   harmonic
| x   Mute note
| b   Bend
| pb  Pre-bend
| br  Bend release
| pbr Pre-bend release
| brb Bend release bend

************************************
Tap to rate this tab
 
# A B C D E F G H I J K L M N O P Q R S T U V W X Y Z