Misc Unsigned Bands - Ready Set Fall - Skyscrapers tab

Artist: Ready, Set, Fall!
Song: Skyscrapers
Album: Radio Edit (None)
tabbed by: necriononguitar
e-mail (NO SPAM!): tim.rathgen@gmx.de

REAL FANS SUPPORT BANDS BY PURCHASING THEIR CD'S!!!


Tuning: Drop B

. = Palm-Muted
~ = hold note
^ = vibrate
p = pull off
h = hammer on
/ = slide up
\ = slide down


So yeah... the songs awesome aaaand there was no tab yet (only a cover)
So this is my try on it, I hope one of the guys will actually read this
(and maybe give a feedback)
Well, Enjoy!



Intro:
The basics
E----------------------------------------------------|
B----------------------------------------------------|
G----------------------------------------------------|
D---------------------------------------------------|
A----------------------------------------------------|
E---0-12\---00-13\---0-12\--00-13\---00-1--00-1------|
                                    (..    ..)
Advanced:
Guitar 1
E---------------------------------------------------------|
B---------------------------------------------------------|
G---------------------------------------------------------|
D--------------------------------------------------------|
A---------------------------------------------------------|
E---0-12\--00--1213\---0-11\---00-12\----00-1--00-1-------|
                                        (..    ..)
E---------------------------------------------------------------|
B---------------------------------------------------------------|
G---------------------------------------------------------------|
D------------------------------------------------0-3-1-0-------|
A---------------------------------------------------------------|
E---0-12\--00--1213\---0-11\---00-12\----0-3-1-0----------------|
                                         . . . .
E---------------------------------------------------------|
B---------------------------------------------------------|
G---------------------------------------------------------|
D--------------------------------------------------------|
A---------------------------------------------------------|
E---0-12\--00--1213\---0-11\---00-12\----00-1--00-1-------|
                                        (..    ..)
E---------------------------------------------------------------|
B---------------------------------------------------------------|
G---------------------------------------------------------------|
D------------------------------------------------0-3-1-0-------|
A---------------------------------------------------------------|
E---0-12\--00--1213\---0-11\---00-12\----0-3-1-0----------------|
                                         . . . .
                        *
E---------------------------------------------------|
B---------------------------------------------------|
G-----------------------7--77---7--77---7--77-------|
D---0-3-1-0------------0--00---0--00---0--00-------|
A------------3-6-5-3----5--55---5--55---5--55-------|
E-----------------------0--00---0--00---0--00-------|


Guitar 2 at *
E-----------------------------------|
B----6--66---6--66---6--66----------|
G----9--99---9--99---9--99----------|
D----------------------------------|
A-----------------------------------|
E-----------------------------------|


Verse I:
E---------------------------------------------------------|
B---------------------------------------------------------|
G---------------------------------------------------------|  repeat this
D--------------------------------------------------------|  until:
A---------------------------------------------------------|
E---00-12\---00-13\---00-11\---00-12\----1111-1111--------|

E---------------------------|
B---------------------------|
G---------------------------|
D---3-33---333---3-33------|
A---5-55---5-55---5-55------|
E---0-00---0-00---0-00------|


Verse II (after the brutal growling)
Guitar 1
E---------------------------------------------------------|
B---------------------------------------------------------|
G---------------------------------------------------------|
D--------------------------------------------------------|
A---------------------------------------------------------|
E---0-12\--00--1213\---0-11\---00-12\----00-1--00-1-------|
                                        (..    ..)
E---------------------------------------------------------------|
B---------------------------------------------------------------|
G---------------------------------------------------------------|
D------------------------------------------------0-3-1-0-------|
A---------------------------------------------------------------|
E---0-12\--00--1213\---0-11\---00-12\----0-3-1-0----------------|
                                         . . . .
E---------------------------------------------------------|
B---------------------------------------------------------|
G---------------------------------------------------------|
D--------------------------------------------------------|
A---------------------------------------------------------|
E---0-12\--00--1213\---0-11\---00-12\----00-1--00-1-------|
                                        (..    ..)
E---------------------------------------------------------------|
B---------------------------------------------------------------|
G---------------------------------------------------------------|
D------------------------------------------------0-3-1-0-------|
A---------------------------------------------------------------|
E---0-12\--00--1213\---0-11\---00-12\----0-3-1-0----------------|
                                         . . . .
                        *
E---------------------------------------------------|
B---------------------------------------------------|
G---------------------------------------------------|
D---0-3-1-0------------3--33---3--33---3--33-------|
A------------3-6-5-3----5--55---5--55---5--55-------|
E-----------------------0--00---0--00---0--00-------|


Guitar 2  at 0:50
E--------------------------------------------------|
B--------------------------------------------------|
G---10-------9--------15--------10-----------------|
D---xx12---x-x12----xx12-----x-x12--------------|
A---8--------7--------13--------8------------------|
E--------------------------------------------------|


Chorus:
E----------------------------------------------|
B----------------------------------------------|
G----------------------------------------------|
D---0-----2--------5--------8-----7-----------|
A---0-x12--2-x4-----5-x8-----8-x4--7-x4--------|
E---0------2--------5--------8-----7-----------|


2nd Verse:
E-------------------------------------------------------------------------|
B-------------------------------------------------------------------------|
G-------------------------------------------------------------------------|
D------------------------------------------------------------------------|
A-------------------------------------------------------------------------|
E---0000-0-0-0-0---2222-2-2-2-2---3333-3-3-3-3---5555-5-5-5h7p5p3---------|
    ....   .   .   ....   .   .   ....   .   .   ....   .
Tap to rate this tab
 
# A B C D E F G H I J K L M N O P Q R S T U V W X Y Z