Song name
# A B C D E F G H I J K L M N O P Q R S T U V W X Y Z

Misc Unsigned Bands - Mallory Knox - Oceans tab

UPDATED VERSION!!!
-------------------------------------------------------------------------------
			     Oceans – Mallory Knox
-------------------------------------------------------------------------------
Tabbed by: Alext09
Email:

Tuning:Drop D
Intro

e|-----------------------------------------------------------------------------|
B|-----------------------------------------------------------------------------|
G|-----------------------------------------------------------------------------|
D|----3---x16----3—x8---5—x8---------------------------------------------------|
A|----5----------4------3------------------------------------------------------|
E|-----------------------------------------------------------------------------|
X4 and finish on the last chord

Heavy bit

e|-----------------------------------------------------------------------------|
B|-----------------------------------------------------------------------------|
G|----------10-x4--------10-x4-------------------------------------------------|
D|---0-x4----------0-x4----------8--x-8--5-7-5-7-5-3---------------------------|
A|---0------8------0-----8-------8-------5-7-5-7-5-3---------------------------|
E|---0-------------0-------------8-------5-7-5-7-5-3---------------------------|
                                         X x x x
Then
e|-----------------------------------------------------------------------------|
B|-----------------------------------------------------------------------------|
G|----------10-x4--------10-x4-------------------------------------------------|
D|---0-x4----------0-x4----------8—hold chord----------------------------------|
A|---0------8------0-----8-------8---------------------------------------------|
E|---0-------------0-------------8---------------------------------------------|
Verse
e|---10---5--6------------------------------------------------------------------|
B|---10---5--6------------------------------------------------------------------|
G|---10---5--7------------------------------------------------------------------|
D|---12---7--8------------------------------------------------------------------|X2
A|------------------------------------------------------------------------------|
E|------------------------------------------------------------------------------|
Then repeat intro and after heavy bit
Chorus 1 A

e|------------------------------------------------------------------------------|
B|------------------------------------------------------------------------------|
G|------------------------------------------------------------------------------| X2
D|--0-x8-5--3--8--8-x-6---------------------------------------------------------|
A|--0----5--3--8--8-------------------------------------------------------------|
E|--0----5--3--8--8-------------------------------------------------------------|
Chorus 1 B
e|-----------------------------------------------------------------------------|
B|-----------------------------------------------------------------------------|
G|-----------------------------------------------------------------------------|
D|--0-x8--5-x8--3 x8 8-x8------------------------------------------------------|
A|--0-----5-----3--- 8---------------------------------------------------------|
E|--0-----5-----3--- 8---------------------------------------------------------|
Then repeat chorus A
Verse 2
e|-----------------------------------------------------------------------------|
B|-----------------------------------------------------------------------------|
G|---------------------------------------5--------7----------------------------|
D|---------3--------3--------------------5--------7----------------------------|X2
A|---3P0-5----3P0-5---3P0---all X3-------3--------5----------------------------|
E|-----------------------------------------------------------------------------|



Then repeat again but with chords in distortion and strummed X8 each
Chorus 2
e|-----------------------------------------------------------------------------|
B|-----------------------------------------------------------------------------|
G|-----------------------------------------------------------------------------|X4
D|---8-x8--10-x8--0-x-8-5-x-8--------------------------------------------------|
A|---8-----10-----0-----5------------------------------------------------------|
E|---8-----10-----0-----5------------------------------------------------------|

Then strum X1 the chords (X2)
Outro
e|--------------------------------------------------------------------------------|
B|----13-------- 13-------13------15------- 15-------  15-------------------------|
G|--------14--------14-------x2--------15-------15----------x2--------------------|
D|-15--------15--------15------ 17------- 17------- 17----------------------------|
A|--------------------------------------------------------------------------------|
E|--------------------------------------------------------------------------------|

e|-----------------------------------------------------------------------------|
B|----17--------17-------17--------18-------18-------18------------------------|
G|-------17--------17--------X2-------17-------17------------------------------|
D|-19-------19--------19--------19-------19-------19---------------------------|
A|-----------------------------------------------------------------------------|
E|-----------------------------------------------------------------------------|

e|-----------------------------------------------------------------------------|
B|----17--------17-------17----------------------------------------------------|
G|-------17--------17----------------------------------------------------------|
D|-19-------19--------19-------------------------------------------------------|
A|-----------------------------------------------------------------------------|
E|-----------------------------------------------------------------------------|

X3 and on the 4th time play the first bar of the Outro and strum below

Final Chord
e|-------------------------------------------------------------------------------|
B|----17-------------------------------------------------------------------------|
G|----17-------------------------------------------------------------------------|
D|----19-------------------------------------------------------------------------|
A|-------------------------------------------------------------------------------|
E|-------------------------------------------------------------------------------|




************************************

| /   slide up
| \   slide down
| h   hammer-on
| p   pull-off
| ~   vibrato
| +   harmonic
| x   Mute note
| b   Bend
| pb  Pre-bend
| br  Bend release
| pbr Pre-bend release
| brb Bend release bend

************************************
Tap to rate this tab
 
# A B C D E F G H I J K L M N O P Q R S T U V W X Y Z