Song name
# A B C D E F G H I J K L M N O P Q R S T U V W X Y Z

Misc Unsigned Bands - Kare No Natsu - Buzzer Beat tab

Kare No Natsu
Buzzer Beat OST
Artist: Hinata Toshifumi
Capo: 4th Fret
Key: E


E|--0--------0--3-----0-----------------0--|--------------------0--------------|
B|--------1-----------------0--------------|--------------1--3-----------0--3--|
G|-----0-----------0-----0--------0--------|--2-----2-----------------0--------|
D|-----------------------------2-----2-----|-----3-----3-----------0-----------|
A|--3--------------------------------------|-----------------------------------|
E|--------------------------0--------------|--1-----------------3--------------| x2



E|--5-----3--|--7-----3--|--5-----------------|--0-----------------|
B|--5--5--0--|--8-----0--|--6-----8-----6-----|--1-----1-----3-----|
G|--5-----0--|--9--9--0--|--5--(5)--(5)----5--|--0--0-----0--4-----|
D|-----------|-----------|--------------------|--------------5-----|
A|-----------|-----------|--------------------|--------------------|
E|-----------|-----------|--------------------|--------------------|



E|--0--------0--3-----0-----------------0--|--8---7--5--3--0-----1--|
B|--------1-----------------0--------------|--10-----5--------3--1--|
G|-----0-----------0-----0--------0--------|--10-----5-----------1--|
D|-----------------------------2-----2-----|------------------------|
A|--3--------------------------------------|------------------------|
E|--------------------------0--------------|------------------------|



E|--------0-----------0-----------------0--|
B|--------------------------1--------1-----|
G|--0-----------2-----------------0--------|
D|-----0-----0-----0-----0-----2-----------|
A|--------------------------3--------------|
E|--3--------------------------------------|
Tap to rate this tab
 
# A B C D E F G H I J K L M N O P Q R S T U V W X Y Z