Song name
# A B C D E F G H I J K L M N O P Q R S T U V W X Y Z

Misc Unsigned Bands - Nekropathy - Biopathic Xenophobia tab

           Standard A Tuning
Verse (tapped)    (x2)
|-------------------------|----------------------------|--------------------|
|-------------------------|----------------------------|--------------------|
|-------------------------|----------------------------|----6/7\6-----------|
|-----660---------660-----|----6/7\6---------6/7\6-----|--------------------|
|---5-----5-----5-----5---|--5-------5-----5-------5---|--5-------5---------|
|-3---------303---------30|3-----------303-----------30|3-----------30------|
                         Main Riff(x1)
|--------------|-------------------------|----------------------------------|
|--------------|-------------------------|----------------------------------|
|-----6/7\6----|-------------------------|----------------------------------|
|--------------|--------13-----13---13---|-------10--10----10/13--10/13-----|
|---5-------5--|--------12-----12---12---|--------9---9-----9/12---9/12-----|
|-3-----------3|000-000----000----0----0-|000-000---0---000------0----------|
                    Breakdown (x3)      Solo
|----------------|-----------------|-------2h5---------------8/11-----------|
|----------------|-----------------|-----4-----7----------10------13--------|
|----------------|-----------------|-2h5---------8p5h8/11------------14p11/-|
|--13-13-10-10/13|-----------------|----------------------------------------|
|--12-12--9--9/12|-5-4-3-0-4-5-4-3-|----------------------------------------|
|0---------------|-3-2-1-0-2-3-2-1-|----------------------------------------|

|---------12h15p12----------------12h15t18p15p12----------------------------|
|------14----------14----------14----------------14-------------------------|
|12h15----------------15-12h15----------------------15p12-------------------|
|---------------------------------------------------------15p12-------------|
|---------------------------------------------------------------16p15-------|
|---------------------------------------------------------------------17p15-|

|---------------------------------------------------------------------------|
|------------16----------------------16----------------------19-------------|
|---------15----15----------------15----15----------------18----18----------|
|------16----------16----------16----------16----------17----------17-------|
|---18----------------18----18----------------18----18----------------18----|
|15----------------------15----------------------17-------------------------|

|-------------------------------------------------|
|------------19-----------------------------------|
|---------18----18--------------------------------|
|------17----------17-----------------------------|
|---18----------------18--------------------------|
|17-----------------------------------------------|
Tap to rate this tab
 
# A B C D E F G H I J K L M N O P Q R S T U V W X Y Z