Misc Unsigned Bands - Embalmed - Decrepitating Offal Dissection tab

-----------------------------------------------------------------------------
    Decrepitating Offal Dissection  - Embalmed
-----------------------------------------------------------------------------
Tabbed by: ViTaMins_v2
Email:Unhandycrane@yahoo.com

Tuning: Standard (D G C F A D)
Intro:
e|------------------------------------------------------------------------|
B|------------------------------------------------------------------------|
G|----------------10------9-------------------10---------8---8------------|
D|---555777999-------8-7----7-6---555777999------8-7-6-7------------------|
A|------------------------------------------------------------------------|
E|------------------------------------------------------------------------|

e|------------------------------------------------------------------------|
B|------------------------------------------------------------------------|
G|---8877------101066-----------------------------------------------------|
D|--------9988--------7766------------------------------------------------|
A|------------------------------------------------------------------------|
E|------------------------------------------------------------------------|

Main Riff: x6
e|------------------------------------------------------------------------|
B|------------------------------------------------------------------------|
G|-------------------------------------------------------9----------------|
D|----------8-------------8h11---------8------------8h11------------------|
A|--0-7-10---10-7---7h10-------0-7-10---10-7--7h10------------------------|
E|------------------------------------------------------------------------|

Main Riff: x4
e|------------------------------------------------------------------------|
B|------------------------------------------------------------------------|
G|----------------------------9-------------------------------------------|
D|---------8-------------8h11---------------------------------------------|
A|--0-7-10---10-7---7h10--------------------------------------------------|
E|------------------------------------------------------------------------|

Main Riff: x4
e|------------------------------------------------------------------------|
B|------------------------------------------------------------------------|
G|------------------------------------------------------------------------|
D|---------8--------------------------------------------------------------|
A|--0-7-10---10-7-6-9-----------------------------------------------------|
E|------------------------------------------------------------------------|

Main Riff: x4
e|------------------------------------------------------------------------|
B|------------------------------------------------------------------------|
G|----------------8-------------------------7-----------------------------|
D|---------8-----------------8--------------------------------------------|
A|--0-7-10---10-7-----0-7-10---10-7---0h6h9-------------------------------|
E|------------------------------------------------------------------------|

Main Break: x2                            (On 4th)
e|---------------------------------[----------------------------]---------|
B|---------------------------------[----------------------------]---------|
G|---------------------------------[----------------------8-----]---------|
D|---------8------------8h11--x3---[---------8------------------]---------|
A|--0-7-10---10-7--7h10------------[--0-7-10---10-7--7h10-------]---------|
E|---------------------------------[----------------------------]---------|

Main Riff: x6
e|------------------------------------------------------------------------|
B|------------------------------------------------------------------------|
G|-------------------------------------------------------9----------------|
D|----------8-------------8h11---------8------------8h11------------------|
A|--0-7-10---10-7---7h10-------0-7-10---10-7--7h10------------------------|
E|------------------------------------------------------------------------|

Main Riff: x4
e|------------------------------------------------------------------------|
B|------------------------------------------------------------------------|
G|----------------------------9-------------------------------------------|
D|---------8-------------8h11---------------------------------------------|
A|--0-7-10---10-7---7h10--------------------------------------------------|
E|------------------------------------------------------------------------|

Main Riff: x4
e|------------------------------------------------------------------------|
B|------------------------------------------------------------------------|
G|------------------------------------------------------------------------|
D|---------8--------------------------------------------------------------|
A|--0-7-10---10-7-6-9-----------------------------------------------------|
E|------------------------------------------------------------------------|

Main Riff: x4
e|------------------------------------------------------------------------|
B|------------------------------------------------------------------------|
G|----------------8-------------------------7-----------------------------|
D|---------8-----------------8--------------------------------------------|
A|--0-7-10---10-7-----0-7-10---10-7---0h6h9-------------------------------|
E|------------------------------------------------------------------------|

Main Break: x2                            (On 4th)
e|---------------------------------[----------------------------]---------|
B|---------------------------------[----------------------------]---------|
G|---------------------------------[----------------------8-----]---------|
D|---------8------------8h11--x3---[---------8------------------]---------|
A|--0-7-10---10-7--7h10------------[--0-7-10---10-7--7h10-------]---------|
E|---------------------------------[----------------------------]---------|


Small Solo Break:
e|--12h13h12--------------------------------------------------------------|
B|-----------15-13-12-13--12h13h12----------------------------------------|
G|---------------------------------15-13-12-13--12h13h12------------------|
D|-------------------------------------------------------15-13-12-13-12---|
A|------------------------------------------------------------------------|
E|------------------------------------------------------------------------|

Main Riff: x2
e|------------------------------------------------------------------------|
B|------------------------------------------------------------------------|
G|------------------------------------------------------------------------|
D|--8---------------8---------------8---------------8---------------------|
A|----7-----7---------7-----7---------7-----7---------7-----7-------------|
E|------6-0---0-7-0-----6-0---0-7-0-----6-0---0-7-0-----6-0---0-7-0-------|


e|------------------------------------------------------------------------|
B|------------------------------------------------------------------------|
G|------------9h12--------------------------------------------------------|
D|-------8h11------8h11---x3----------------------------------------------|
A|--7h10------------------------------------------------------------------|
E|------------------------------------------------------------------------|

e|-----------------12h15--------------------------------------------------|
B|--------------13--------------------------------------------------------|
G|-----------14-----------------------------------------------------------|
D|--------14--------------------------------------------------------------|
A|--12h15-----------------------------------------------------------------|
E|------------------------------------------------------------------------|

Main Riff: x2
e|------------------------------------------------------------------------|
B|------------------------------------------------------------------------|
G|------------------------------------------------------------------------|
D|--8---------------8---------------8---------------8---------------------|
A|----7-----7---------7-----7---------7-----7---------7-----7-------------|
E|------6-0---0-7-0-----6-0---0-7-0-----6-0---0-7-0-----6-0---0-7-0-------|

e|-----------------12h15-----------------15h19--------12h15--------------|
B|--------------13--------------------16--------11h14--------------------|
G|-----------14--------------------17------------------------------------|
D|--------14--------------------17---------------------------------------|
A|--12h15-----------------15h19------------------------------------------|
E|-----------------------------------------------------------------------|

e|------------------------------------------------------------------------|
B|------------------------------------------------------------------------|
G|----------------10------9-------------------10---------8----------------|
D|---555777999-------8-7----7-6---555777999------8-7-6-7------------------|
A|------------------------------------------------------------------------|
E|------------------------------------------------------------------------|

Fill: x2  (12's & 11's)
e|------------------------------------------------------------------------|
B|------------------------------------------------------------------------|
G|------------------------------------------------------------------------|
D|------------------------------------------------------------------------|
A|--------------------------------------+15-------------------------------|
E|--000121212111111000121212111111000-0-----------------------------------|

          (12's & 11's)
e|------------------------------------------------------------------------|
B|------------------------------------------------------------------------|
G|-------------------------------------9------11--------------------------|
D|-----------------------------------8-----10-----------------------------|
A|---------------------------------7-----9--------------------------------|
E|--000121212111111000121212111111----------------------------------------|

Main Riff:
e|------------------------------------------------------------------------|
B|------------------------------------------------------------------------|
G|------------------------------------------------------------------------|
D|--8---------------8---------------8---------------8---------------------|
A|----7-----7---------7-----7---------7-----7---------7-----7-------------|
E|------6-0---0-7-0-----6-0---0-7-0-----6-0---0-7-0-----6-0---0-7-0-------|

e|------------------------------------------------------------------------|
B|------------------------------------------------------------------------|
G|------------9h12--------------------------------------------------------|
D|-------8h11------8h11-----------x8--------------------------------------|
A|--7h10-------------------+15--------------------------------------------|
E|----------------------0-------------------------------------------------|

Main Riff: x4
e|------------------------------------------------------------------------|
B|------------------------------------------------------------------------|
G|-------------------------------------------------------9----------------|
D|----------8-------------8h11---------8------------8h11------------------|
A|--0-7-10---10-7---7h10-------0-7-10---10-7--7h10------------------------|
E|------------------------------------------------------------------------|

Main Riff: x8
e|------------------------------------------------------------------------|
B|------------------------------------------------------------------------|
G|----------------------------9-------------------------------------------|
D|---------8-------------8h11---------------------------------------------|
A|--0-7-10---10-7---7h10--------------------------------------------------|
E|------------------------------------------------------------------------|

************************************

| /   slide up
| \   slide down
| h   hammer-on
| p   pull-off
| ~   vibrato
| +   harmonic
| x   Mute note
| b   Bend
| pb  Pre-bend
| br  Bend release
| pbr Pre-bend release
| brb Bend release bend

************************************
Tap to rate this tab
 
# A B C D E F G H I J K L M N O P Q R S T U V W X Y Z