Song name
# A B C D E F G H I J K L M N O P Q R S T U V W X Y Z

Misc Unsigned Bands - Kupek - If You Werent Such An Asshole tab

-------------------------------------------------------------------------------
			     If you weren't such an Asshole - Kupek
-------------------------------------------------------------------------------
Tabbed by: Andrew O
Email:poiplepunisher@hotmail.com

Tuning: standard

CAPO 3RD FRET

Get the rhythm from the song.
Tabbed by ear.
This version should be correct but 
if there is any corrections to be made please email me.

Chords used: C Am F

Normal C and Am used but, the F chord is 
[1 X 3 2 1 0] version where the thumb is on low E 1st fret.


Verse:

C
if you weren't such an asshole

               F
maybe i'd be more inclined to call

               C
and we could talk about the old days, the good days

           Am             F
*before it all went **to shit


             Am
*but things tend to

                      F
i mean **it's no-one's fault


          Am
*unless it is

                              C
and if it is, ***it's probably yours

Theres a part in between verses where 
he just plays the riffs (It will be shown with a # symbol)

The chords repeat in the same fashion 
the rest of the song except for parts where 
he eases up on the strumming.

Rest of the Lyrics:

and if you weren't such an asshole
maybe it woulda turned out some other way
and we wouldn't have just squandered all our potential
back in the day
but the days got short and times got tough
but that's not your fault
so it's probably mine...

[[#]]

if you weren't such an asshole
where would we be now?
see, i keep on moving forward, like a sucker
and i'm sick of how we all grow up
and we all grow old
and we pump out kids or we turn out gay
or we move back home or we move back away
and we all get hurt and we all gotta die
and we've all got a shared history, but I'm 
gonna kick this downward trend
I've got enough friends

This part happens between chords        (WITH CAPO STILL ON)
(* shows where it belongs in the song ^)

(*)
e|---------------------------------------------------------------------------|
B|---------------------------------------------------------------------------|
G|---------------------------------------------------------------------------|
D|---------------------------------------------------------------------------|
A|----3--2---0~~-------------------------------------------------------------|
E|---------------------------------------------------------------------------|

[**]

e|---------------------------------------------------------------------------|
B|---------------------------------------------------------------------------|
G|---------------------------------------------------------------------------|
D|---------------------------------------------------------------------------|
A|----0----------------------------------------------------------------------|
E|---------3---1~~-----------------------------------------------------------|

{***}

e|---------------------------------------------------------------------------|
B|---------------------------------------------------------------------------|
G|---------------------------------------------------------------------------|
D|---------------------------------------------------------------------------|
A|------------3~~------------------------------------------------------------|
E|----1---3------------------------------------------------------------------|

Tap to rate this tab
 
# A B C D E F G H I J K L M N O P Q R S T U V W X Y Z