Song name
# A B C D E F G H I J K L M N O P Q R S T U V W X Y Z

Misc Unsigned Bands - Ascendeath - War Repeats tab

      Intro           Guitar's 1&2
                                                                              
 |--------------------------------------------------------------------------|
 |--------------------------------------------------------------------------|
 |--------------------------------------------------------------------------|
 |--------------------------------------------------------------------------|
 |--------5h7p5---7h8p7--------5h7p5---8h10p8-------5h7p5---7h8p7-----1-----|
 |-0-000--------0-------0-000--------0--------0-000-------0-------0235--532-|

 |--------------------------------------------------------------------------|
 |--------------------------------------------------------------------------|
 |--------------------------------------------------------------------------|
 |--------------------------------------------------------------------------|
 |--------5h7p5---7h8p7--------5h7p5---8h10p8-------5h7p5---7h8p7-----1-----|
 |-0-000--------0-------0-000--------0--------0-000-------0-------0235--532-|
     
 |--------------------------------------------------------------------------|
 |--------------------------------------------------------------------------|
 |--------------------------------------------------------------------------|
 |--------------------------------------------------------------------------|
 |--------5h7p5---7h8p7--------5h7p5---8h10p8-------5h7p5---7h8p7-----1-----|
 |-0-000--------0-------0-000--------0--------0-000-------0-------0235--532-|

 |--------------------------------------------------------------------------|
 |--------------------------------------------------------------------------|
 |--------------------------------------------------------------------------|
 |--------------------------------------------------------------------------|
 |--------5h7p5---7h8p7--------5h7p5---8h10p8-------5h7p5---7h8p7-----1-----|
 |-0-000--------0-------0-000--------0--------0-000-------0-------0235--532-|




 |--------------------------------------------------------------------------|
 |--------------------------------------------------------------------------|
 |--------------------------------------------------------------------------|
 |-2----------2-----------2-------------------------------------------------|
 |-2-----/8p7-2-----/10p8-2-----/12p10---------1----------------------------|
 |-0-000------0-000-------0-000--------0-2-3-5---5-3-2----------------------|
   
                           Guitar 1
 |--------------------------------------------------------------------------|
 |--------------------------------------------------------------------------|
 |--------------------------------------------------------------------------|
 |-2----------2-----------2------------------------------2------------------|
 |-2-----/8p7-2-----/6p5--2-----/3p2-----------1---------2------------------|
 |-0-000------0-000-------0-000--------0-2-3-5---5-3-2---0------------------|

                           Guitar 2
 |--------------------------------------------------------------------------|
 |--------------------------------------------------------------------------|
 |--------------------------------------------------------------------------|
 |-2-----/10p9--2------/8p7--2-----/5p4----------------------2--------------|
 |-2------------2------------2--------------------1----------2--------------|
 |-0-000--------0-000--------0-000--------0-2-3-5---5-3-2----0--------------|


 Verse                      Guitar's 1&2


 |--------------------------------------------------------------------------|
 |--------------------------------------------------------------------------|
 |--------------------------------------------------------------------------|
 |--------------------------------------------------------------------------|
 |--------5h7p5---7h8p7--------5h7p5---8h10p8-------5h7p5---7h8p7-----1-----|
 |-0-000--------0-------0-000--------0--------0-000-------0-------0235--532-|

 |--------------------------------------------------------------------------|
 |--------------------------------------------------------------------------|
 |--------------------------------------------------------------------------|
 |--------------------------------------------------------------------------|
 |--------5h7p5---7h8p7--------5h7p5---8h10p8-------5h7p5---7h8p7-----1-----|
 |-0-000--------0-------0-000--------0--------0-000-------0-------0235--532-|
     
                      
                      Bridge    Guitars 1&2
 |--------------------------------------------------------------------------|
 |--------------------------------------------------------------------------|
 |--------------------------------------------------------------------------|
 |--------2\1----1/2--------2\1----1/2--------2\1----1/2--------------------|
 |--------2\1----1/2--------2\1----1/2--------2\1----1/2-----------1-0------|
 |-0-000-------0------0-000------0------0-000------0------0--3-2-0-----3-2--|

 |--------------------------------------------------------------------------|
 |--------------------------------------------------------------------------|
 |--------------------------------------------------------------------------|
 |--------2\1----1/2--------2\1----1/2--------2\1----1/2--------------------|
 |--------2\1----1/2--------2\1----1/2--------2\1----1/2-----------1-0------|
 |-0-000-------0------0-000------0------0-000------0------0--3-2-0-----3-2--|

                      Verse Guitars 1&2
 |--------------------------------------------------------------------------|
 |--------------------------------------------------------------------------|
 |--------------------------------------------------------------------------|
 |--------------------------------------------------------------------------|
 |--------5h7p5---7h8p7--------5h7p5---8h10p8-------5h7p5---7h8p7-----1-----|
 |-0-000--------0-------0-000--------0--------0-000-------0-------0235--532-|

 |--------------------------------------------------------------------------|
 |--------------------------------------------------------------------------|
 |--------------------------------------------------------------------------|
 |--------------------------------------------------------------------------|
 |--------5h7p5---7h8p7--------5h7p5---8h10p8-------5h7p5---7h8p7-----1-----|
 |-0-000--------0-------0-000--------0--------0-000-------0-------0235--532-|
     
 


             Bridge    Guitars 1&2
 |--------------------------------------------------------------------------|
 |--------------------------------------------------------------------------|
 |--------------------------------------------------------------------------|
 |--------2\1----1/2--------2\1----1/2--------2\1----1/2--------------------|
 |--------2\1----1/2--------2\1----1/2--------2\1----1/2-----------1-0------|
 |-0-000-------0------0-000------0------0-000------0------0--3-2-0-----3-2--|

 |--------------------------------------------------------------------------|
 |--------------------------------------------------------------------------|
 |--------------------------------------------------------------------------|
 |--------2\1----1/2--------2\1----1/2--------2\1----1/2--------------------|
 |--------2\1----1/2--------2\1----1/2--------2\1----1/2-----------1-0------|
 |-0-000-------0------0-000------0------0-000------0------0--3-2-0-----3-2--|

                    Chorus Guitars 1&2
 |--------------------------------------------------------------------------|
 |--------------------------------------------------------------------------|
 |--------------------------------------------------------------------------|
 |-2-------0---------------------2-------2----------------------------------|
 |-2---2h3---3p2p0--2h3p2p0-2p0--2---2h3---3p2p0----------------------------|
 |-0-0---------------------------0-0---------------6p5-0-5p3-0-3p2----------|

 |--------------------------------------------------------------------------|
 |--------------------------------------------------------------------------|
 |--------------------------------------------------------------------------|
 |-2-------0---------------------2-------2----------------------------------|
 |-2---2h3---3p2p0--2h3p2p0-2p0--2---2h3---3p2p0----------------------------|
 |-0-0---------------------------0-0---------------6p5-0-5p3-0-3p2----------|

 |--------------------------------------------------------------------------|
 |--------------------------------------------------------------------------|
 |--------------------------------------------------------------------------|
 |-2-------0---------------------2-------2----------------------------------|
 |-2---2h3---3p2p0--2h3p2p0-2p0--2---2h3---3p2p0----------------------------|
 |-0-0---------------------------0-0---------------6p5-0-5p3-0-3p2----------|

 |--------------------------------------------------------------------------|
 |--------------------------------------------------------------------------|
 |--------------------------------------------------------------------------|
 |-2-------0---------------------2-------2----------------------------------|
 |-2---2h3---3p2p0--2h3p2p0-2p0--2---2h3---3p2p0----------------------------|
 |-0-0---------------------------0-0---------------6p5-0-5p3-0-3p2----------|


                       Verse Guitars 1&2

 |--------------------------------------------------------------------------|
 |--------------------------------------------------------------------------|
 |--------------------------------------------------------------------------|
 |--------------------------------------------------------------------------|
 |--------5h7p5---7h8p7--------5h7p5---8h10p8-------5h7p5---7h8p7-----1-----|
 |-0-000--------0-------0-000--------0--------0-000-------0-------0235--532-|

 |--------------------------------------------------------------------------|
 |--------------------------------------------------------------------------|
 |--------------------------------------------------------------------------|
 |--------------------------------------------------------------------------|
 |--------5h7p5---7h8p7--------5h7p5---8h10p8-------5h7p5---7h8p7-----1-----|
 |-0-000--------0-------0-000--------0--------0-000-------0-------0235--532-|
     


            Bridge    Guitars 1&2
 |--------------------------------------------------------------------------|
 |--------------------------------------------------------------------------|
 |--------------------------------------------------------------------------|
 |--------2\1----1/2--------2\1----1/2--------2\1----1/2--------------------|
 |--------2\1----1/2--------2\1----1/2--------2\1----1/2-----------1-0------|
 |-0-000-------0------0-000------0------0-000------0------0--3-2-0-----3-2--|

 |--------------------------------------------------------------------------|
 |--------------------------------------------------------------------------|
 |--------------------------------------------------------------------------|
 |--------2\1----1/2--------2\1----1/2--------2\1----1/2--------------------|
 |--------2\1----1/2--------2\1----1/2--------2\1----1/2-----------1-0------|
 |-0-000-------0------0-000------0------0-000------0------0--3-2-0-----3-2--|


    

                     Chorus Guitars 1&2
 |--------------------------------------------------------------------------|
 |--------------------------------------------------------------------------|
 |--------------------------------------------------------------------------|
 |-2-------0---------------------2-------2----------------------------------|
 |-2---2h3---3p2p0--2h3p2p0-2p0--2---2h3---3p2p0----------------------------|
 |-0-0---------------------------0-0---------------6p5-0-5p3-0-3p2----------|

 |--------------------------------------------------------------------------|
 |--------------------------------------------------------------------------|
 |--------------------------------------------------------------------------|
 |-2-------0---------------------2-------2----------------------------------|
 |-2---2h3---3p2p0--2h3p2p0-2p0--2---2h3---3p2p0----------------------------|
 |-0-0---------------------------0-0---------------6p5-0-5p3-0-3p2----------|

 |--------------------------------------------------------------------------|
 |--------------------------------------------------------------------------|
 |--------------------------------------------------------------------------|
 |-2-------0---------------------2-------2----------------------------------|
 |-2---2h3---3p2p0--2h3p2p0-2p0--2---2h3---3p2p0----------------------------|
 |-0-0---------------------------0-0---------------6p5-0-5p3-0-3p2----------|

 |--------------------------------------------------------------------------|
 |--------------------------------------------------------------------------|
 |--------------------------------------------------------------------------|
 |-2-------0---------------------2-------2----------------------------------|
 |-2---2h3---3p2p0--2h3p2p0-2p0--2---2h3---3p2p0---------------------------|
 |-0-0---------------------------0-0---------------6p5-0-5p3-0-3p2----------|


                        Solo Riff   Guitar 1

 |--------------------------------------------------------------------------|
 |--------------------------------------------------------------------------|
 |--------------------------------------------------------------------------| 
 |--------------------------------------------------------------------------|
 |--------5h7p5---7h8p7--------5h7p5---8h10p8-------5h7p5---7h8p7-----1-----|
 |-0-000--------0-------0-000--------0--------0-000-------0-------0235--532-|

 |--------------------------------------------------------------------------|
 |--------------------------------------------------------------------------|
 |--------------------------------------------------------------------------|
 |--------------------------------------------------------------------------|
 |--------5h7p5---7h8p7--------5h7p5---8h10p8-------5h7p5---7h8p7-----1-----|
 |0-000--------0-------0-000--------0--------0-000-------0-------0235--5322-|

 |-------------------------------------------------------------------------|
 |-------------------------------------------------------------------------|
 |-------------------------------------------------------------------------|
 |-2---1---2--2---1---2--2---1---2-----------------------------------------|
 |-2---1---2--2---1---2--2---1---2------4-4-4-4-4-4-4----------------------|
 |-0-0---0----0-0---0----0-0---0-----0--2-2-2-2-2-2-2----------------------|

 |--------------------------------------------------------------------------|
 |--------------------------------------------------------------------------|
 |--------------------------------------------------------------------------|
 |-2---1---2--2---1---2--2---1---2------------------------------------------|
 |-2---1---2--2---1---2--2---1---2------3-3-3-3-3-3-3-----------------------|
 |-0-0---0----0-0---0----0-0---0-----0--1-1-1-1-1-1-1-----------------------|


 |--------------------------------------------------------------------------|
 |-------------------------------------------------------------------------|
 |--------------------------------------------------------------------------|
 |--------------------------------------------------------------------------|
 |-7-77-777-77-777-77-777-77--7-77-777-77--10-10--5-5-----------------------|
 |-5-55-555-55-555-55-555-55--5-55-555-55--8--8---3-3-----------------------|

 |--------------------------------------------------------------------------|
 |--------------------------------------------------------------------------|
 |--------------------------------------------------------------------------|
 |--------------------------------------------------------------------------|
 |-7-77-777-77-777-77-777-77--7-77-777-77--10-10--5-5-----------------------|
 |-5-55-555-55-555-55-555-55--5-55-555-55--8--8---3-3-----------------------|

               Chorus Guitars 1&2

 |---------------------------------------------------------------------------
 |--------------------------------------------------------------------------|
 |--------------------------------------------------------------------------|
 |-2-------0---------------------2-------2----------------------------------|
 |-2---2h3---3p2p0--2h3p2p0-2p0--2---2h3---3p2p0----------------------------|
 |-0-0---------------------------0-0---------------6p5-0-5p3-0-3p2----------|

 |--------------------------------------------------------------------------|
 |--------------------------------------------------------------------------|
 |--------------------------------------------------------------------------|
 |-2-------0---------------------2-------2----------------------------------|
 |-2---2h3---3p2p0--2h3p2p0-2p0--2---2h3---3p2p0----------------------------|
 |-0-0---------------------------0-0---------------6p5-0-5p3-0-3p2----------|

 |--------------------------------------------------------------------------|
 |--------------------------------------------------------------------------|
 |--------------------------------------------------------------------------|
 |-2-------0---------------------2-------2----------------------------------|
 |-2---2h3---3p2p0--2h3p2p0-2p0--2---2h3---3p2p0----------------------------|
 |-0-0---------------------------0-0---------------6p5-0-5p3-0-3p2----------|

 |--------------------------------------------------------------------------|
 |--------------------------------------------------------------------------|
 |--------------------------------------------------------------------------|
 |-2-------0---------------------2-------2----------------------------------|
 |-2---2h3---3p2p0--2h3p2p0-2p0--2---2h3---3p2p0----------------------------|
 |-0-0---------------------------0-0---------------6p5-0-5p3-0-3p2----------|

|--------------------------------------------------------------------------|
 |--------------------------------------------------------------------------|
 |--------------------------------------------------------------------------|
 |--------------------------------------------------------------------------|
 |--------5h7p5---7h8p7--------5h7p5---8h10p8-------5h7p5---7h8p7-----1-----|
 |-0-000--------0-------0-000--------0--------0-000-------0-------0235--532-|

 |--------------------------------------------------------------------------|
 |--------------------------------------------------------------------------|
 |--------------------------------------------------------------------------|
 |--------------------------------------------------------------------------|
 |--------5h7p5---7h8p7--------5h7p5---8h10p8-------5h7p5---7h8p7-----1-----|
 |-0-000--------0-------0-000--------0--------0-000-------0-------0235--532-|
     
 |--------------------------------------------------------------------------|
 |--------------------------------------------------------------------------|
 |--------------------------------------------------------------------------|
 |--------------------------------------------------------------------------|
 |--------5h7p5---7h8p7--------5h7p5---8h10p8-------5h7p5---7h8p7-----1-----|
 |-0-000--------0-------0-000--------0--------0-000-------0-------0235--532-|

 |--------------------------------------------------------------------------|
 |--------------------------------------------------------------------------|
 |--------------------------------------------------------------------------|
 |--------------------------------------------------------------------------|
 |--------5h7p5---7h8p7--------5h7p5---8h10p8-------5h7p5---7h8p7-----1-----|
 |-0-000--------0-------0-000--------0--------0-000-------0-------0235--532-|
                    

 |----------------|
 |----------------|
 |----------------|
 |--2-------------|
 |--2-------------|
 |--0-------------|
Tap to rate this tab
 
# A B C D E F G H I J K L M N O P Q R S T U V W X Y Z