Misc Unsigned Bands - Chris Cheney - Distant Sun tab

Distant Sun - Chris Cheney

Tabbed By Paintstripper
Email: thepaintstripper@gmail.com

Intro

e-------------------3----------------------------------------------|
b-------------------0----------------------------------------------|
g---2-2-2-2-2-2-----0----------------------------------------------|  x4
d---2-4-4-2-4-2p0---0----------------------------------------------| 
a-------------------2----------------------------------------------|
e-------------------3----------------------------------------------|
    D               G


Verse (Muted Chords)

D                                      G
Tell me all the things you would change
  D                                  G
I don't pretend to know what you want
         Bm                          E
When you come around and spend my time
              G               F#
Time and again, time and again


     D                      G
No fire where I lit my spark
D                          G
I am not afraid of the dark
       Bm                       E
Where your words devour my heart
                   G
And put me to shame, put me to shame

Chorus

    A                  Em
Your seven worlds collide
     G         A          D
Whenever I am by your side
   A                   Em
Dust from a distant sun
       G          A      D
Will shower over everyone

Guitar fill
e-----------------------------------------------------------------|
b-----------------------------------------------------------------|
g---7----7--------------------------------------------------------|
d---7h9--7--------------------------------------------------------| 
a------------9--7--5----------------------------------------------|
e-----------------------------------------------------------------|

(Verse)
D                                     G
You're still so young to travel so far
  D                          G
Old enough to know who you are
  A-A#-Bm                        E
Wise enough to carry the scars
            G                         F#
Without any blame, there's no-one to blame

     D                            G
It's easy to forget what you learnt
D                            G
Waiting for the thrill to return
A-A#-Bm                    E 
Feeling your desire burn
           G
And drawn to the flame

(Chorus)

    A                  Em
Your seven worlds collide
     G         A          D
Whenever I am by your side
   A                   Em
Dust from a distant sun
       G          A      D
Will shower over everyone
  A                   Em
Dust from a distant sun
       G          A
Will shower over everyone

(Bridge)
         Bm           A     G                     A Bm
And I'm lying on the table washed out in the flood
       A                 G                   A 
Like a Christian fearing vengeance from above
   Bm              A             G
I don't pretend to know what you want
                   A
But I offer love

(Solo)

e-----------------------------------------------------------------|
b--------------------------3--------3p0----------------2----------|
g----2h4/6--4h6/9-----------------------2p0--------2h4----2-------|
d--------------------2/4h5---5-4------------0---------------------| 
a--0--------------------------------------------0-----------------|
e------------------0--------------3-------------------------------|

e-------------10------14------------------------------------------|
b-------10--------------------------------10--12/14---------------|
g----/7------/11-----/14---------------9--------------------------|
d--0-----------------------------9/11--------9/11------------9----| 
a-----------------------------0--------------------------7--------|
e--------------------------------------------------0--------------|

e--10p7------7--------------------------------------------2-------|
b-------8h10----8-----------------------------------------3-------|
g-------------------9p7----------0-0-0--------------------2-------|
d------------------------9p7-----5-4-2-----------2-2------0-------| 
a----------------------------------------0--2/4-------------------|
e-----------------------------------------------------------------|
                                                          D 
                                                          
(Chorus)
    A                  Em
Your seven worlds collide
     G         A          D
Whenever I am by your side
   A                   Em
Dust from a distant sun
       G          A      D   F#   G
Will shower over everyone
   D         F#    G
As Time slips by

D  F#  G

And I fell asleep

With the dust laid on the ground
Tap to rate this tab
 
# A B C D E F G H I J K L M N O P Q R S T U V W X Y Z