Misc Unsigned Bands - Jakewolf - Lungs And The Problems They Cause tab

this is my first tab. there was no other tab for this song so i decided to tab it out 
for you guys.
its really simple. THIS IS NOT MY WORK!!!!!! :) so here ya go :D
standard tuning EADGBe

INTRO-
e- --------------------------------------------------------------------|
B- --------------------------------------------------------------------|
G- -----4-------4-------4----------------4-------4-------4-0h2/4-4--4--|
D- ---2---2---2---2---2---2----2---2---2---2---2---2---2-----------2---|
A- -4-------4-------4--------4---2---0-------0-------0-----------------|
E- --------------------------------------------------------------------|

e- -------------------------------------------------------------------|
B- -------------------------------------------------------------------|
G- -----4-------4-------4------------------4-----4--------------------|
D- ---2---2---2---2---2---2----2---2---2-2-------2--------------------|
A- -4-------4-------4--------4---2---0-----------0--------------------|
E- ----------------------------------------------0--------------------|


VERSE 1-
e- -------------------------------------------------------------------|
B- -------------------------------------------------------------------|
G- -----4-------4-------4-------4-------4--------4-------4-------4----|
D- ---2---2---2---2---2---2---2---2---2---2----2---2---2---2---2---2--|
A- -4-------4-------4-------4-------0--------0-------0-------0--------|
E- -------------------------------------------------------------------|

e- -------------------------------------------------------------------|
B- -------------------------------------------------------------------|
G- -----4-------4-------4-------4----4--------------------------------|
D- ---2---2---2---2---2---2---2---2--2--------------------------------|
A- -4-------4-------4-------4--------0--------------------------------|
E- ----------------------------------0--------------------------------|
VERSE(X2)


CHOURS- (listen to the song to get strum pattern. its mainly downstrokes.)
e- -------------------------------------------------------------------|
B- -------------------------------------------------------------------|
G- -4-----------4-----------------------------------------------------|
D- -2--(x16)----2--(x16)----------------------------------------------|
A- -4-----------0-----------------------------------------------------|
E- -0-----------0-----------------------------------------------------|

-INTRO-

VERSE 2-
e- -------------------------------------------------------------------|
B- -------------------------------------------------------------------|
G- -----4-------4-------4-------4-------4--------4-------4-------4----|
D- ---2---2---2---2---2---2---2---2---2---2----2---2---2---2---2---2--|
A- -4-------4-------4-------4-------0--------0-------0-------0--------|
E- -------------------------------------------------------------------|

e- -------------------------------------------------------------------|
B- -------------------------------------------------------------------|
G- -----4-------4-------4-------4----4--------------------------------|
D- ---2---2---2---2---2---2---2---2--2--------------------------------|
A- -4-------4-------4-------4--------0--------------------------------|
E- ----------------------------------0--------------------------------|
VERSE(X2)(but on the second time he strums the two chords 8 times each at the end. 
listen to the song.)

-CHORUS- (for outro chorus just go back and for the between the two chords doing single 
strokes at the end. and thats itt.)


so thats all. its a really easy song :) PLESAE RATE!!!!!:DDDD
if you have any corrections or anything you can shoot me an email at nor_cal_emo@hotmail.com
thank you. take care and godbless you :) <3
Tap to rate this tab
 
# A B C D E F G H I J K L M N O P Q R S T U V W X Y Z