Song name
# A B C D E F G H I J K L M N O P Q R S T U V W X Y Z

Misc Unsigned Bands - Old School Politics - Got It tab

Band- Old School Politics
Song- Got it
Tuning- Standard

Intro bass and drum

Intro 1 (2x)
E|---------------------------------|           
B|---------------------------------|
G|-------------4------444----------|
D|-66666666666-4-4-22-444-4-44-2-4-|
A|-66666666666-2-4-22-222-4-44-2-4-|
D|-44444444444---2-00-----2-22-0-2-|

  Intro 2 
E|-----------------------------------------|
B|-----------------------------------------|
G|-------------------------------99--------|
D|-6-xxxx-66-66-2-4-6-xxxx-66-66-99--------|
A|-6-xxxx-66-66-2-4-6-xxxx-66—66-77--------|
D|-4-xxxx-44-44-0-2-4-xxxx-44-44-----------|

E|-----------------------------------------|
B|-----------------------------------------|
G|------------------44444444---------------|
D|-6-xxxx-66-66-2-4-44444444-44------------|
A|-6-xxxx-66-66-2-4—22222222-44------------|
D|-4-xxxx-44-44-0-2----------22------------|

  (Lead)
E|-----------------------------------------|
B|-----------------------------------------|
G|--13--16-15-13--11/13/11--8--11-13-------|
D|-----------------------------------------|
A|--11--14-13-11--9 /11/9 --6--9--11-------|
D|-----------------------------------------|



  Verse (2x) (Be just what you..)
E|-----------------------------------------|
B|-----------------------------------------|
G|-----------------------------------------|
D|--6--66----6--66----6—66-ss/-00x0-4444444|
A|--6--66----6--66----6—66-ss/-00x0-4444444|
D|--4--44----4--44----4—44-ss/-00x0-2222222|

  (Lead) (1x the second time)
E|-----------------------------------------|
B|-----------------------------------------|
G|----13-----------------------------------|
D|-----------------------------------------|
A|----11-----------------------------------|
D|-----------------------------------------|

  Pre-Chorus (I’m proudly..) (1x)
E|-----------------------------------------|
B|---------------------S-------------------|
G|-------8-------------T-------------------|
D|--2--4--8--6--2--4---O-------------------|
A|--2--4--6--6--2--4---P-------------------|
D|--0--2-----4--0--6-----------------------|

  Chorus (2x) (You got it..)
E|-----------------------------------------|
B|-----------------------------------------|
G|-----4-----------------------------------|
D|--6--4--4-------2------------------------|
A|--6--2--4-------2------------------------|
D|--4-----2—Jump--0------------------------|

Intro 2

  Bridge (2x) (A broken guitar..)
E|-----------------------------------------|
B|-----------------------------------------|
G|--9---4-------6--------------------------|
D|--9---4---4---6--------------------------|
A|--7---2---4---4--------------------------|
D|----------2------------------------------|

  Bridge part 2 (1x) (It’s something..)
E|-----------------------------------------|
B|-----------------------------------------|
G|---9---4---------------------------------|
D|---9---4---4---6-6-6--4-4-4—-2*----------|
A|---7---2---4---6-6-6--4-4-4-—2*----------|
D|-----------2---4-4-4--2-2-2-—0*----------|

Punch on E

Chorus 2 times faster till the end, then intro 2 !
That’s it!
Have Fun :)!
Tap to rate this tab
 
# A B C D E F G H I J K L M N O P Q R S T U V W X Y Z