Misc Unsigned Bands - Lifeboat - Shark Week tab

Okay well heres my first tab Im pretty sure its about 98% accurate so yeah have fun with it!! :D

-------------------------------------------------------------------------------|
-------------------------------------------------------------------------------|
-------------------------------------------------------------------------------|
15/---------------------------------10----------------------------------*7-----|
15/--0-----8-----7-8---0----8---7-8-----8-8-10-10-10-10-7-7-8-8-8-8-8-7--------|
15/--0-0-0---0-0-----0-0--0---0---------8-8-------------7-7--------------------|
       . .   . .     .    .   .

-------------------------------------------------------------------------------|
-------------------------------------------------------------------------------|
-------------------------------------------------------------------------------|
---------------------------------10--------------------------------------------|
--0-----8-----7-8---0----8---7-8-----8-8-10-10-10-10-7-7-8-8-8-8-8-5-7-8-------|
--0-0-0---0-0-----0-0--0---0---------8-8-------------7-7-----------------------|
    . .   . .     .    .   .

Play that twice

--------------------------------------------------------------------------------|
--------------------------------------------------------------------------------|
--------------------------------------------------------------------------------| X2
---------------------------------------8---7--7h8p7-----------------------------|
--0-00-00-0000-00----0-00-00-0000-00----------------10-8------------------------|
--0-00-00-0000-00----0-00-00-0000-00-0---0--------------------------------------|
   . .. .. .... ..    . .. .. .... .. .   .

--------------------------------------------------------------------------------|
--------------------------------------------------------------------------------|
---------------------------------------7---5--5h7p5-----------------------------| X2
----------------------------------------------------8-7-------------------------|
--0-00-00-0000-00~---0-00-00-0000-00--------------------------------------------|
--0-00-00-0000-00~---0-00-00-0000-00-0---0--------------------------------------|
   . .. .. .... ..    . .. .. .... .. .   .

-------------------------------------------------------------------------------|
-------------------------------------------------------------------------------|
-------------------------------------------------------------------------------|
-------------------------------------------------------------------------------|
-555585755510585551055855888810108877-5555857555105855510558557788101077-------|
-------------------------------------------------------------------------------|
   (10s not 1s and 0s)

-------------------------------------------------------------------------------|
-------------------------------------------------------------------------------|
-------------------------------------------------------1415h17p15-14h15p14-----|
-88888888101087-8-10-8-7-121212121512121412121512141517-------------------1715-|
-------------------------------------------------------------------------------|
-------------------------------------------------------------------------------|

-13-17131513171318131713171317131813171317131713181317131513--|--13--|--20--|--|
--------------------------------------------------------------|------|------|--|
--------------------------------------------------------------|------|------|--|
--------------------------------------------------------------|------|------|--|
--------------------------------------------------------------|------|------|--|
--------------------------------------------------------------|------|------|--|

| First ending | Second Ending |

Unfortunately I couldnt figure out this part which sucks cuz its the coolest part. :/ 
But the ending goes


-------------------------------------------------------------------------------|
-------------------------------------------------------------------------------|
-17-19-17--15--14-12-14-10-----------------------------------------------------|
-------------------------------------------------------------------------------|
-------------------------------------------------------------------------------|
-------------------------------------------------------------------------------|
Tap to rate this tab
 
# A B C D E F G H I J K L M N O P Q R S T U V W X Y Z