Misc Unsigned Bands - The Bandgeek Mafia - Just Friends Acoustic tab

Standard Tuning

|----------------------------0-----------------------0-----|
|-5--------------------------0-------------4---------0-----|
|-6--------------------------1-------------4---------2-----|
|-6--------------------------2-------------4---------2-----|
|-4--------------------------------------------------------|
|----------------------------------------------------------|
      Becoming clean, slowly I get back to what I've been

|----------0-----------0-----------------------------------|
|----------0-----------0--------4--------5-----------------|
|----------2-----------1--------4--------6-----------------|
|----------2-----------2--------4--------6-----------------|
|----------------------------------------4-----------------|
|----------------------------------------------------------|

I close my eyes and I can't see you smiling

--play the same for the following 2 verse:--

It's good to hear, your voice it's good to feel your breathin'
I close my eyes again, I feel nothing

I wrote these words for a new beginning, I start once more
To loose control, I feel addicted and I feel small


|-------------------------------0----------------------0-------------|
|-5-----------------------------0-----4----------------0-------------|
|-6-----------------------------1-----4----------------2-------------|
|-6-----------------------------2-----4----------------2-------------|
|-4------------------------------------------------------------------|
|--------------------------------------------------------------------|
     Never touch the wings of a butterfly cause it may die, like I did

|-------0--------------0-----------------------------0-------------|
|-------0--------------0-----------------4-----------0-------------|
|-------2--------------1-----------------4-----------2-------------|
|-------2--------------2-----------------4-----------2-------------|
|----------------------------------------------------0-------------|
|----------------------------------------------------0-------------|
 You've torn something apart, you cannot cure it anymore!


--rest should be easy to play with one one the 2 patterns--
I know it's not the best or rudimentaly the original tab. But you can sing along to this tab.
Tap to rate this tab
 
# A B C D E F G H I J K L M N O P Q R S T U V W X Y Z