Song name
# A B C D E F G H I J K L M N O P Q R S T U V W X Y Z

Misc Unsigned Bands - Mad Fingers - Blessing chords

Intro/Verse:

e---x---|  |---x---|  |---8---|  |---x---|  |---10--|  |---x---|
b---5---|  |---6---|  |---5---|  |---8---|  |---7---|  |---7---|
g---5---|  |---5---|  |---5---|  |---7---|  |---7---|  |---7---|
d---5---|  |---7---|  |---5---|  |---9---|  |---7---|  |---7---|
a-------|  |-------|  |-------|  |-------|  |-------|  |-------|
E-------|, |-------|, |-------|, |-------|, |-------|, |-------|

Chorus (Bridge on 2nd time round.)

e---x---|  |---x---|  |---2---|  |---3---|  |---0---|
b---3---|  |---3---|  |---3---|  |---3---|  |---3---|
g---0---|  |---0---|  |---2---|  |---2---|  |---2---|
d---2---|  |---0---|  |---0---|  |---0---|  |---0---|
a---3---|  |---2---|  |-------|  |-------|  |-------|
E-------|, |-------|, |-------|, |-------|, |-------|

Tap to rate this tab
 
# A B C D E F G H I J K L M N O P Q R S T U V W X Y Z