Song name
# A B C D E F G H I J K L M N O P Q R S T U V W X Y Z

Misc Unsigned Bands - Driven Overboard - Take Me Away tab

Fig. 1:

E-------------------------------------------------------------|
B-------------------------------------------------------------|
G-------------------------------------------------------------|
D-------------------------------------------------------------|
A-------------------------------------------------------------|
D-0-12-10-0-3--0-12-10-0-3333-0-12-10-0-3--0-12-10-0-15151515-|

Fig. 2:


E-------------------------------------------------------------|
B-------------------------------------------------------------|
G-------------------------------------------------------------|
D-------------------------------------------------------------|
A-0-12-10-0-3--0-12-10-0-3333-0-12-10-0-3--0-12-10-0-15151515-|
D-0-12-10-0-3--0-12-10-0-3333-0-12-10-0-3--0-12-10-0-15151515-|

Fig. 3:
E------------------------------------------------------------|
B------------------------------------------------------------|
G--------------------8--------------------10108-8------------|
D-0-0---0-0-00--0000-x--0-0---0-0-00--0-0-x-x-x-x------------|
A-0-0---0-0-00--0000-6--0-0---0-0-00--0-0-8-8-6-6------------|
D-0-0---0-0-00--0000----0-0---0-0-00--0-0--------------------|

Fig. 4:
E------------------------------------------------------------|
B------------------------------------------------------------|
G--------------------8---------------------10108-8-----------|
D-00000-0-0-00--0000-x--00000--0-0-00--0-0-x-x-x-x-----------|
A-00000-0-0-00--0000-6--00000--0-0-00--0-0-8-8-6-6-----------|
D-00000-0-0-00--0000----00000--0-0-00--0-0-------------------|

Fig. 5:
E------------------------------------------------------------|
B------------------------------------------------------------|
G-7-7-777-5-5-5-8-8-8--7-7-777-5-5-5-10108-8-----------------|
D-x-x-xxx-x-x-x-x-x-x--x-x-xxx-x-x-x-x-x-x-x-----------------|
A-5-5-555-3-3-3-6-6-6--5-5-555-3-3-3-8-8-6-6-----------------|
D------------------------------------------------------------|

Fig. 6:
E------------------------------------------------------------|
B------------------------------------------------------------|
G-------------5-8888------8--------------------10108-8-------|
D-0-0---0-0-0-x-xxxx-0000-x--0-0---0-0-00--0-0-x-x-x-x-------|
A-0-0---0-0-0-3-6666-0000-6--0-0---0-0-00--0-0-8-8-6-6-------|
D-0-0---0-0-0--------0000----0-0---0-0-00--0-0---------------|

Fig. 7:
E------------------------------------------------------------|
B------------------------------------------------------------|
G-7-7-7-7-1010101012-12-12-12-12-12-12-12--------------------|
D-x-x-x-x-x-x-x-x-x--x--x--x--x--x--x--x---------------------|
A-5-5-5-5-8-8-8-8-10-10-10-10-10-10-10-10--------------------|
D------------------------------------------------------------|

Fig. 8:
E------------------------------------------------------------|
B------------------------------------------------------------|
G-7-7-777-------------7-7-777--------------------------------|
D-7-7-777-3-3-3-5-5-5-7-7-777-8-8-8-6-6-6--------------------|
A-5-5-555-3-3-3-5-5-5-5-5-555-8-8-8-6-6-6--------------------|
D---------3-3-3-5-5-5---------8-8-8-6-6-6--------------------|

Repeat Fig.8 With palm muting for the bridge.
Just place them in order to learn the song.
Music goes to Driven Overboard.
Tabbed out by Courtney Storer
Tap to rate this tab
 
# A B C D E F G H I J K L M N O P Q R S T U V W X Y Z