Misc Unsigned Bands - Dairybeat - El Nido The Nest tab

EL NIDO (The Nest): DAIRYBEAT (Andre H. Hofman - 2003) 4/4 - 100

Please list my Tab, so I can link it to my music on YouTube, Thanks!

Intro:

 |A       |./.     |./.     |
  /\/\/    /\/\/    /\/\/
e|9----7-5------------------|
b|--------------------------|
g|---------6----4-2---------|
d|-------------------------2|
a|------------------4----2--|
e|--------------------------|

Verse 1:

 |A    |E       |A     |./.   |./.   |E       |A      |A7    |
e|-----------------------------------------------------------|
b|---------0-2-0-------------------------0-2-0---------2-----|
g|2-----1--------2-------------2------1--------2---2/4------2|
d|------------------2/4-2---2--------------------------------|
a|-----------------------------------------------------------|
e|-----------------------------------------------------------|

 |D    |./.     |A    |./.   |./.   |E       |A      |E      |
e|---------2-0-----------------------------------------------|
b|3-----3------3-2----------------------0-2-0---------------5|
g|-------------------4-2------2------1--------2--------------|
d|--------------------------2---------------------2/4-2------|
a|-----------------------------------------------------------|
e|-----------------------------------------------------------|

Verse 2:

 |A    |E       |A      |./.   |./.   |E       |A       |A7     |
e|5-----4--7-9-7----------------5----5-4--7-9-7-----------------|
b|---------------10--5/7-5----5-----------------10-10/12-14---10|
g|--------------------------------------------------------------|
d|--------------------------------------------------------------|
a|--------------------------------------------------------------|
e|--------------------------------------------------------------|

 |D    |./.       |A      |./.   |./.   |E       |A         |A7    |
e|10------14-12-------------------5------4--7-9-7------------9-----|
b|--------------15-14---12-10---5-----------------10---10/12-------|
g|-----------------------------------------------------------------|
d|-----------------------------------------------------------------|
a|-----------------------------------------------------------------|
e|-----------------------------------------------------------------|

Chorus:

 |D          |./.        |A          |./.        |E         |./.      |
  /\/\/       /\/\/       /\/\/       /\/\/       /\/\/      /\/\/
e|10----------10----------9-----------9-----------7----------7--------|
b|-----12-10-------12-10-------12-10-------12-10-------10-9-------10-9|
g|--------------------------------------------------------------------|
d|--------------------------------------------------------------------|
a|--------------------------------------------------------------------|
e|--------------------------------------------------------------------|

 |A              |A7    |D            |./.         |
                         /\/\          /\/\
e|--------------7-9------10--14-12-10--10--14-12-10|
b|10--9-10-9-10------------------------------------|
g|-------------------------------------------------|
d|-------------------------------------------------|
a|-------------------------------------------------|
e|-------------------------------------------------|


 |A         |./.       |E        |./.      |A      |F     |
  /\/\       /\/\       /\/\      /\/\
e|9---12-10--9---12-10--7---10-9--7---10-9--5---5/4-5-----|
b|--------------------------------------------------------|
g|--------------------------------------------------------|
d|--------------------------------------------------------|
a|--------------------------------------------------------|
e|-------------------------------------------------------1|

Verse 3:

 |Bb   |F       |Bb     |F      |Bb   |F       |Bb    |Bb7    |
e|------------------------------------------------------------|
b|------------------------------------------------------------|
g|------------------------------------------------------------|
d|--------------------------------------------0---------------|
a|1-----0--3-5-3-1---------------1-----0--3---3-1----3-5-----1|
e|-------------------1/3-1---1-1------------------------------|

 |Eb   |./.     |Bb   |./.    |./.   |F       |Bb     |F      |
e|------------------------------------------------------------|
b|------------------------------------------------------------|
g|---------0--------------------------------------------------|
d|1-----1----3-1-0-------------------------0-----------------3|
a|-------------------3-1-------1------0--3---3-1--------------|
e|--------------------------1----------------------1/3-1------|

Bridge + Outro:

 |Bb   |F       |Bb     |F     |Bb    |F        |Bb    |
e|------------------------------6------5--8-10-8-------|
b|-----------3----------------6------------------11----|
g|3-----2--5---5-3-------------------------------------|
d|-------------------3/5-3-----------------------------|
a|-----------------------------------------------------|
e|-----------------------------------------------------|

                               / (break)
 |Bb       |./.     |./.      |Bb      |
  /\/\/     /\/\/    /\/\/
e|10---8-6-----------------------------|
b|-------------------------------------|
g|----------7---5-3--------------------|
d|-------------------0-----------------|
a|-----------------------3-1/0-1-------|
e|-------------------------------------|


Copyright:
Andre H. Hofman, Zuivelstraat 1, 1445 MH Purmerend, The Netherlands
E-mail: dairybeat@kpnmail.nl

This file is my own work, and you may only use it for private study,
scholarship, or research.

Dairybeat on: http://www.soundclick.com/bands/pagemusic.cfm?bandID=137360

YouTube: dairybeat
Tap to rate this tab
 
# A B C D E F G H I J K L M N O P Q R S T U V W X Y Z