Song name
# A B C D E F G H I J K L M N O P Q R S T U V W X Y Z

Misc Unsigned Bands - Drunken Tiger - 845 Heaven tab

Tuning:Standard

BASS

INTRO
G|-12------------------------------------------------------------|
D|----11-12-------------------12~ 12~ ---------------------------|
A|----------10------------------------10-------------------------|
E|---------------------------------------------------------------|
FOLLOW PIANO
G|---------------------------------------------------------------|
D|--------X12---------------------------------------X12----------|
A|---X8----------------10---CUTOUT------3------X8----------------|
E|---------------------------------------------------------------|

G|---------------------------------------------------------------|
D|------------------------------X8----------------12~ -----------|
A|---10-------------3h5-3----------8-3----8----------------------|
E|---------3-----------3-----------------------------------------|
VERSE
G|---------------------------------------------------------------|
D|---------------------------------------------------------------|
A|-----------------------------3h5-3-x-3-3-x---9s10-8-x-----15~ -|
E|-15s13-3-x-3-3-x-2-3-x-3-3-x--------------------------0-1------|

GUITAR

e|---------------------------------------------------------------|
B|---FADE-IN-18----------18--15----------------------------------|
G|---------------------------------------------------------------|
D|---------------------------------------------------------------|
A|---------------------------------------------------------------|
E|---------------------------------------------------------------|
RIFF
e|---------------------------------------------------------------|
B|----------13h15-15---------------------------------------------|
G|--10-12P10--------12s10----------------------------------------|
D|---------------------------------------------------------------|
A|---------------------------------------------------------------|
E|---------------------------------------------------------------|





| /  slide up
| \  slide down
| h  hammer-on
| p  pull-off
| ~  vibrato
| +  harmonic
| x  Mute note
Tap to rate this tab
 
# A B C D E F G H I J K L M N O P Q R S T U V W X Y Z