Song name
# A B C D E F G H I J K L M N O P Q R S T U V W X Y Z

Misc Unsigned Bands - Lazywall - I Raise My Hand tab

VERSE

e|--------------------|------0-------------|--------------------|-----------------------|
B|------0---------0---|-----------1--------|-------0---------0---|---------------0------|
G|-----------0--------|---------------0----|-----------2--------|----------2------------|
D|-2------------------|-2------------------|-1------------------|------1----------------|
A|--------------------|--------------------|--------------------|-2---------------------|
D|--------------------|--------------------|--------------------|-----------------------|



e|--------------------|------0-------------|--------------------|-----------------------|
B|------0---------0---|-----------1--------|-------0---------0---|---------------0------|
G|-----------0--------|---------------0----|-----------2--------|----------2------------|
D|-2------------------|-2------------------|-1------------------|------1----------------|
A|--------------------|--------------------|--------------------|-2---------------------|
D|--------------------|--------------------|--------------------|-----------------------|


CHORUS

e|--------------------|--------------------|--------------------|------------------------|
B|--------------------|-----------10-------|--------------12-----|-----------7-----------|
G|-----------9--------|--------------------|--------------------|------------------------|
D|------8---------8---|------10----------10-|-------12----------12|------7---------7-----|
A|--------------------|--------------------|--------------------|------------------------|
D|-7------------------|-8------------------|-10------------------|-5---------------------|



e|--------------------|--------------------|--------------------|------------------------|
B|--------------------|-----------10-------|--------------12-----|-12----------10--------|
G|-----------9--------|--------------------|--------------------|------------------------|
D|------8---------8---|------10----------10-|-------12----------12|-------12---------12--|
A|--------------------|--------------------|--------------------|------------------------|
D|-7------------------|-8------------------|-10------------------|-----------------------|




PRECHORUS.

e|----------0---------|-(0)----------------|----------0---------|-(0)----------------|
B|--------------------|--------0-----------|-0------------------|--------0-----------|
G|-0------------------|--------------------|-0------------------|--------------------|
D|-2------------------|--------------------|-2------------------|--------------------|
A|-2------------------|--------------------|-3------------------|--------------------|
D|-0------------------|--------------------|--------------------|--------------------|


e|----------3---------|-(3)----------------|--------------------|-------------------|
B|--------------------|--------3-----------|-3--------3---------|-(3)---------------|
G|-0------------------|--------------------|-2------------------|-------------2-----|
D|-0------------------|--------------------|-0------------------|-------------------|
A|-2------------------|--------------------|--------------------|-------------------|
D|-3------------------|--------------------|-2------------------|-------------------|




GUITAR SOLO.
Tap to rate this tab
 
# A B C D E F G H I J K L M N O P Q R S T U V W X Y Z