Song name
# A B C D E F G H I J K L M N O P Q R S T U V W X Y Z

Misc Unsigned Bands - The Good China - All Nothing tab

The Good China  All Nothing
================================


Intro
C#m     B      A
C#m     B      A

Verse riff (actually played octave higher)

e---0---4-0-9-7-4-5-4-0------4-0---7-4-0----0-------0---4-0-5-4-2-4-2-0-----|
B-----0-----------------2--------4-------4-----2------0---------------------|
G---------------------------------------------------------------------------|
D---------------------------------------------------------------------------|
A---------------------------------------------------------------------------|
E---------------------------------------------------------------------------|

e---2-0---0-----------------------------------------------------------------|
B-------4---4-0-----0-------------------------------------------------------|
G----------------1----------------------------------------------------------|
D---------------------2-----------------------------------------------------|
A---------------------------------------------------------------------------|
E---------------------------------------------------------------------------|


Verse chords
E     Abm    A
E     B      A
E     Abm    A
E     B      A


Verse 1		We had a bike behind the garden shed 
		Dust off the cobwebs 
		And I pushed on 
		I had to get across two major roads 
		Yeah, thats pretty big 
		For a three year old 

Verse 2		Point the bike towards my grandma's place 
		The surprise on her face 
		Was astounding 
		Although they wondered where my mother was 
		Probably because 
		I was alone when they found me

Pre-chorus
    E              Emaj7          E6		 Emaj7
e---0-0-0-0---0----0-0-0-0---0----0-0-0-0---0----0-0-0-0---0---------------|
B---0-0-0-0---0----4-4-4-4---4----2-2-2-2---2----4-4-4-4---4---------------|
G---1-1-1-1---1----1-1-1-1---1----1-1-1-1---1----1-1-1-1---1---------------|
D---2-2-2-2---2----2-2-2-2---2----2-2-2-2---2----2-2-2-2---2---------------|
A--------------------------------------------------------------------------|
E--------------------------------------------------------------------------|
    F#m			       E
e---2-2-2-2---2---2-2-2-2---2-------------------4-4-4-4-7-7-7-7------------|
B---2-2-2-2---2---2-2-2-2---2---5-5-5-5-7-7-7-7-5-5-5-5-5-5-5-5------------|
G---2-2-2-2---2---2-2-2-2---2---4-4-4-4-4-4-4-4-4-4-4-4-4-4-4-4------------|
D---4-4-4-4---4---4-4-4-4---4---6-6-6-6-6-6-6-6-6-6-6-6-6-6-6-6------------|
A---4-4-4-4---4---4-4-4-4---4----------------------------------------------|
E---2-2-2-2---2---2-2-2-2---2----------------------------------------------|

Instrumental chorus
C#m     B      A
C#m     B      A

Riff

Verse 3		We had a sea shell on the bathroom bench 
		My parents found it when 
		We were in Queensland 
 		And when I knocked it down with my bath towel 
		The deafening sound 
		Made them both mad 

Verse 4		I couldn't look at them in the eye 
		Cos they'd see me cry 
		I was so scared 
		Instead I ran behind the garden shed 
		Dust off those cobwebs 
		And got out of there 

Pre-chorus

Chorus		
C#m     B      A	Oh oh o-oh oh, its all nothing, 
                        oh oh o-oh oh, its all nothing
C#m     B      A	Oh oh o-oh oh, its all nothing now

C#m     B      A	Oh oh o-oh oh, its all nothing, 
                        oh oh o-oh oh, its all nothing
C#m     B      A	Oh oh o-oh oh, its all nothing now

Break 
       E              Emaj7           E6            Emaj7
e||:---0-0-0-0---0----0-0-0-0---0----0-0-0-0---0----0-0-0-0---0-------------|
B||:---0-0-0-0---0----4-4-4-4---4----2-2-2-2---2----0-0-0-0---0-------------|
G||:---1-1-1-1---1----1-1-1-1---1----1-1-1-1---1----1-1-1-1---1-------------|
D||:---2-2-2-2---2----2-2-2-2---2----2-2-2-2---2----2-2-2-2---2-------------|
A||:------------------------------------------------------------------------|
E||:------------------------------------------------------------------------|

    F#m			       1st  E	     Emaj7 
e---2-2-2-2---2---2-2-2-2b--2---|-0-0-0-0---0----0-0-0-0---0--------------:||
B---2-2-2-2---2---2-2-2-2---2---|-0-0-0-0---0----4-4-4-4---4--------------:||
G---2-2-2-2---2---2-2-2-2---2---|-1-1-1-1---1----1-1-1-1---1--------------:||
D---4-4-4-4---4-----------------|-2-2-2-2---2----2-2-2-2---2--------------:||
A---4-4-4-4---4-----------------|-----------------------------------------:||
E---2-2-2-2---2-----------------|-----------------------------------------:||

Repeat this part. Only play the two chords the 1st time, 2nd time play this instead:

       E
e----------------------4-4-4-4-7-7-7-7------------|
B------5-5-5-5-7-7-7-7-5-5-5-5-5-5-5-5------------|
G------4-4-4-4-4-4-4-4-4-4-4-4-4-4-4-4------------|
D------6-6-6-6-6-6-6-6-6-6-6-6-6-6-6-6------------|	x3
A-------------------------------------------------|
E-------------------------------------------------|

Chorus		
C#m     B      A	Oh oh o-oh oh, its all nothing, 
                        oh oh o-oh oh, its all nothing
C#m     B      A	Oh oh o-oh oh, its all nothing now

C#m     B      A	Oh oh o-oh oh, its all nothing, 
                        oh oh o-oh oh, its all nothing
C#m     B      A	Oh oh o-oh oh, its all nothing now

Tap to rate this tab
 
# A B C D E F G H I J K L M N O P Q R S T U V W X Y Z