Song name
# A B C D E F G H I J K L M N O P Q R S T U V W X Y Z

Misc Unsigned Bands - Make Me Famous - Make It Precious tab

Artist: Make Me Famous
Song: Make It Precious

Tuning: Drop C ( CGCFAD)

Intro

|-----------------------------------|
|-----------------------------------|
|-----------------------------------|
|-----------------------------------|
|-0-0---0-0-0-0---------------------|
|-1-1-111-1-1-1---------------------|
      **

|----------------------------------------------------|
|----------------------------------------------------|
|----------------------------------------------------|
|----------------------------------------------------|
|-0-0-000-0-000-0-000-00-00-0-0-000-0-000--0-00------|
|-1-1-111-1-111-1-111-11-11-1-1-111-1-111--1-11-3br--|
  * * *** * *** * *** ** ** * * *** * ***  * **

|-----------------------------------------------------|
|-----------------------------------------------------|
|-----------------------------------------------------|
|-----------------------------------------------------|
|-0-0-000-0-000-0-000-00-00-0-0-000-0-000--000-00-00--|
|-1-1-111-1-111-1-111-11-11-1-1-111-1-111--111-11-11--|
  * * *** * *** * *** ** ** * * *** * ***  *** ** **

Verse

|------------------------------------------------------|
|------------------------------------------------------|
|-----------fast---------------------------------------|
|------------------------------------------------------|
|-0-0-000-0-0000-00-00-----00000-00-00-0-0-000-00-00---|
|-0-0-000-0-0000-00-00-3br-00000-00-00-0-0-000-00-00---|
  * * *** * **** ** **     ***** ** ** * * *** ** **

|----------------------------------------------------------|
|----------------------------------------------------------|
|-----------------fast-------------------------------------|
|----------------------------------------------------------|
|-0-0-000-0-000-0-0000-00-00-----00000-00-00-0-0-000-00-00-|
|-0-0-000-0-000-0-0000-00-00-3br-00000-00-00-0-0-000-00-00-|
  * * *** * *** * **** ** **     ***** ** ** * * *** ** **

Chorus 1

|--------------------------|
|--------------------------|
|--------------------------|
|-5---10----3----0---------|
|-5-x8-8-x8-3-x8-0-x8------|
|-5----8----3----0---------|

|-----------------------------------|
|-----------------------------------|
|-----------------------------------|
|-10-----3-----10-----3----0--------|
|--8-x16-3-x16--8-x16-3-x8-0-x8-----|
|--8-----3------8-----3----0--------|

Verse 2

|-----------------------------------|
|-----------------------------------|
|-----------------------------------|
|---------------1-3-3-1-0-3-3-------|
|---------00-00-1-3-3-1-0-3-3-------|
|-3^-0-5^-00-00-1-3-3-1-0-3-3-------|
          ** **

|-----------------------------------|
|-----------------------------------|
|-----------------------3333-2222---|
|-----------------------------------|
|---------00-00---------------------|
|-3^-0-5^-00-00---00-00-------------|
          ** **   *  *

|-----------------------------------|
|-----------------------------------|
|-----------------------------------|
|---------------1-3-3-1-0-3-3-------|
|---------00-00-1-3-3-1-0-3-3-------|
|-3^-0-5^-00-00-1-3-3-1-0-3-3-------|
          ** **

|-----------------------------------|
|-----------------------------------|
|-----------------------3333-2222---|
|-----------------------------------|
|---------00-00---------------------|
|-3^-0-5^-00-00---00-00-------------|
          ** **   *  *

|------------------------------|
|------------------------------|
|------------------------------|
|---------------1-3-3-1-0------|
|---------00-00-1-3-3-1-0-5*~--|
|-3^-0-5^-00-00-1-3-3-1-0------|
          ** **

Breakdown 1

|---------------------------------------------------------|
|---------------------------------------------------------|
|---------------------------------------------------------|
|---------------------------------------------------------|
|-0-0-0-00000-0-0-00000---0-0-0-00000000-00-00-000000-12\-|
|-0-0-0-00000-0-0-00000---0-0-0-00000000-00-00-000000-12\-|
  * * * ***** * * *****   * * * ******** ** ** ******

|--------------------------------------------------5*-------|
|----------------------------------------------------5*-----|
|------------------------------------------------------5*---|
|--------------------------------------------------------5*-|
|-0-0-0-00000-0-0-00000---0-0-0-00000000-00-00-0000---------|
|-0-0-0-00000-0-0-00000---0-0-0-00000000-00-00-0000---------|
  * * * ***** * * *****   * * * ******** ** ** ****

|-----------------------------------------------------|
|-----------------------------------------------------|
|-----------------------------------------------------|
|-----------------------------------------------------|
|-0-0-0-00000-0-0-00000000-0-0-0-00000-0-0-000000000--|
|-1-1-1-11111-1-1-11111111-1-1-1-11111-1-1-111111111--|
  * * * ***** * * ******** * * * ***** * * *********

|-------------------------------------------------------------|
|-------------------------------------------------------------|
|-------------------------------------------------------------|
|-------------------------------------------------------------|
|-0-0-0-0000000-00-00-00-0000000000-0-0-0-000000-00-0000000---|
|-0-0-0-0000000-00-00-00-0000000000-0-0-0-000000-00-0000000---|
  * * * ******* ** ** ** ********** * * * ****** ** *******

Chorus 2

|--------------------------|
|--------------------------|
|--------------------------|
|-5---10----3----0---------|
|-5-x8-8-x8-3-x8-0-x8------|
|-5----8----3----0---------|

|-----------------------------------|
|-----------------------------------|
|-----------------------------------|
|-10-----3-----10-----3----0--------|
|--8-x16-3-x16--8-x16-3-x8-0-x8-----|
|--8-----3------8-----3----0--------|

Bridge

|-----------------------------------10h12p12-|
|-----------------------------10h12----------|
|-----------9h10p9---------------------------|
|-10--7h8p7--------10--0---3-----------------|
|--8-------------------0---3-----------------|
|--8-------------------0---3-----------------|

Cool riff

|-------------------------------------------------------------|
|-------------------------------------------------------------|
|-------------------------------------------------------------|
|-------------------------------------------------------------|
|-00-00-0--0000-00---0000-000--33-33-3------------------------|
|-00-00-0--0000-00---0000-000--33-33-3-0000-00-0000-00-00555--|
  ** ** *  **** *    **** ***  ** ** * ***  *  ***  ** **

|-------------------------------------------------------------|
|-------------------------------------------------------------|
|-------------------------------------------------------------|
|-------------------------------------------------------------|
|-00-00-0--0000-00---0000-000--33-33-3------------------------|
|-00-00-0--0000-00---0000-000--33-33-3-0000-00-0000-00-00555--|
  ** ** *  **** *    **** ***  ** ** * ***  *  ***  ** **

|-------------------------------------------------------------|
|-------------------------------------------------------------|
|-------------------------------------------------------------|
|-------------------------------------------------------------|
|-00-00-0--0000-00---0000-000--33-33-3------------------------|
|-00-00-0--0000-00---0000-000--33-33-3-0000-00-0000-00-00111--|
  ** ** *  **** *    **** ***  ** ** * ***  *  ***  ** **

|-------------------------------------------------------------|
|-------------------------------------------------------------|
|-------------------------------------------------------------|
|-------------------------------------------------------------|
|-00-00-0--0000-00---0000-000--11-11-1------------------------|
|-00-00-0--0000-00---0000-000--11-11-1-1111-00-0000-00-00111--|
  ** ** *  **** *    **** ***  ** ** * ***  *  ***  ** **

|---------------------|
|---------------------|
|---------------------|
|-0------0---0--------|
|-0------0---0---0----|
|-0------0---0---0----|
                 *
Admit that I just did it bitch! OH!

|-----------------------------------|
|-----------------------------------|
|-----------------------------------|
|-----------------------------------|
|-0000-00-000-000---0000-000000-0---|
|-0000-00-000-000---0000-000000-0---|
  **** ** *** ***   **** ****** *

|--------------------------------------|
|--------------------------------------|
|--------------------------------------|
|--------------------------------------|
|-000000-00-000-000----0000-000000-000-|
|-000000-00-000-000----0000-000000-000-|
  ****** ** *** ***    **** ****** ***
Tap to rate this tab
 
# A B C D E F G H I J K L M N O P Q R S T U V W X Y Z