Song name
# A B C D E F G H I J K L M N O P Q R S T U V W X Y Z

Misc Unsigned Bands - The Faded Age - Boredom tab

Song off of The Faded Age's first EP, only song on their myspace. You guys should 
check them out!!!


(Intro)
e|------------------------------------------|
B|------------------------------------------|
G|-3-333333--4-3-3--------------------------|
D|-3-333333--4-3-3--3-3--4-4--3-3-333333----|
A|-1-111111--2-1-1--3-3--4-4--3-3-333333----|
E|------------------1-1--2-2--1-1-111111----|

(Chorus)
Lead Guitar
e------------9-13-11-9---------------------------------|
B-11-9--9-11-----------11---11-11-9--------------------|
G-----10----------------------------10-10-8------------|
D-------------------------------------------11-8---8-8-|
A------------------------------------------------11----|
E------------------------------------------------------|

Rhythm Guitar:
e|------------------------------------------|
B|------------------------------------------|
G|-3-333333--4-444444-----------------------|
D|-3-333333--4-444444--4-444444--3-333333---|
A|-1-111111--2-222222--4-444444--3-333333---|
E|---------------------2-222222--1-111111---|

e|------------------------------------------|
B|------------------------------------------|
G|-3-333333--4-444444-----------------------|
D|-3-333333--4-444444--4-444444--3-333333---|
A|-1-111111--2-222222--4-444444--3-333333---|
E|---------------------2-222222--1-111111---|

(Verse)
e|------------------------------------------|
B|------------------------------------------|
G|-6-666666--6-x6-x6------------------------|
D|-6-666666--6-x6-x6--6-666666--6-x6-x6-----|
A|-4-444444--4-x4-x4--6-666666--6-x6-x6-----|
E|--------------------4-444444--4-x4-x4-----|
     M----|             M----|      

e|------------------------------------------|
B|------------------------------------------|
G|------------------------------------------|
D|-8-888888-8-x8--6-4-444444-4-x4-x4--------|
A|-8-888888-8-x8--6-4-444444-4-x4-x4--------|
E|-6-666666-6-x6--4-2-222222-2-x2-x2--------|
     M----|           M----|   

e|------------------------------------------|
B|------------------------------------------|
G|-6-666666--6-x6-x6------------------------|
D|-6-666666--6-x6-x6--6-666666--6-x6-x6-----|
A|-4-444444--4-x4-x4--6-666666--6-x6-x6-----|
E|--------------------4-444444--4-x4-x4-----|
     M----|             M----|          

e|------------------------------------------|
B|------------------------------------------|
G|------------------------------------------|
D|-8-888888-8-x8--6-4-444444-4-444444--------|
A|-8-888888-8-x8--6-4-444444-4-444444--------|
E|-6-666666-6-x6--4-2-222222-2-222222--------|
     M----|           M----|   

(Chorus)
Lead Guitar
e------------9-13-11-9---------------------------------|
B-11-9--9-11-----------11---11-11-9--------------------|
G-----10----------------------------10-10-8------------|
D-------------------------------------------11-8---8-8-|
A------------------------------------------------11----|
E------------------------------------------------------|

e------------9-13-11-9---------------------------------|
B-11-9--9-11-----------11---11-11-9--------------------|
G-----10----------------------------10-10-8------------|
D-------------------------------------------11-8---8-8-|
A------------------------------------------------11----|
E------------------------------------------------------|

Rhythm Guitar
e|------------------------------------------|
B|------------------------------------------|
G|-3-333333--4-444444-----------------------|
D|-3-333333--4-444444--4-444444--3-333333---|
A|-1-111111--2-222222--4-444444--3-333333---|
E|---------------------2-222222--1-111111---|

e|------------------------------------------|
B|------------------------------------------|
G|-3-333333--4-444444-----------------------|
D|-3-333333--4-444444--4-444444--3-333333---|
A|-1-111111--2-222222--4-444444--3-333333---|
E|---------------------2-222222--1-111111---|

e|------------------------------------------|
B|------------------------------------------|
G|-3-333333--4-444444-----------------------|
D|-3-333333--4-444444--4-444444--3-333333---|
A|-1-111111--2-222222--4-444444--3-333333---|
E|---------------------2-222222--1-111111---|

e|------------------------------------------|
B|------------------------------------------|
G|-3-333333--4-444444-----------------------|
D|-3-333333--4-444444--4-444444--3-333333---|
A|-1-111111--2-222222--4-444444--3-333333---|
E|---------------------2-222222--1-111111---|

(Bridge)
e|--------------------------------------------|
B|--------------------------------------------|
G|-3-333333-6-xx3-xx3-333333-6-xx3-xx3-333333-|
D|-3-333333-6-xx3-xx3-333333-6-xx3-xx3-333333-|
A|-1-111111-4-xx1-xx1-111111-4-xx1-xx1-111111-|
E|--------------------------------------------|

e|------------------------------|
B|------------------------------|
G|-6-xx3------------------------|
D|-6-xx3-xx3-xx6-xx3-333333-----|
A|-4-xx1-xx3-xx6-xx3-333333-----|
E|-------xx1-xx4-xx1-111111-----|

(Verse)
e|------------------------------------------|
B|------------------------------------------|
G|-6-666666--6-x6-x6------------------------|
D|-6-666666--6-x6-x6--6-666666--6-x6-x6-----|
A|-4-444444--4-x4-x4--6-666666--6-x6-x6-----|
E|--------------------4-444444--4-x4-x4-----|
     M----|             M----|      

e|------------------------------------------|
B|------------------------------------------|
G|------------------------------------------|
D|-8-888888-8-x8--6-4-444444-4-x4-x4--------|
A|-8-888888-8-x8--6-4-444444-4-x4-x4--------|
E|-6-666666-6-x6--4-2-222222-2-x2-x2--------|
     M----|           M----|   

e|------------------------------------------|
B|------------------------------------------|
G|-6-666666--6-x6-x6------------------------|
D|-6-666666--6-x6-x6--6-666666--6-x6-x6-----|
A|-4-444444--4-x4-x4--6-666666--6-x6-x6-----|
E|--------------------4-444444--4-x4-x4-----|
     M----|             M----|          

e|------------------------------------------|
B|------------------------------------------|
G|------------------------------------------|
D|-8-888888-8-x8--6-4-444444-4-444444--------|
A|-8-888888-8-x8--6-4-444444-4-444444--------|
E|-6-666666-6-x6--4-2-222222-2-222222--------|
     M----|           M----|   


(Chorus)
Lead Guitar
e------------9-13-11-9---------------------------------|
B-11-9--9-11-----------11---11-11-9--------------------|
G-----10----------------------------10-10-8------------|
D-------------------------------------------11-8---8-8-|
A------------------------------------------------11----|
E------------------------------------------------------|

e------------9-13-11-9---------------------------------|
B-11-9--9-11-----------11---11-11-9--------------------|
G-----10----------------------------10-10-8------------|
D-------------------------------------------11-8---8-8-|
A------------------------------------------------11----|
E------------------------------------------------------|

Rhythm Guitar
e|------------------------------------------|
B|------------------------------------------|
G|-3-333333--4-444444-----------------------|
D|-3-333333--4-444444--4-444444--3-333333---|
A|-1-111111--2-222222--4-444444--3-333333---|
E|---------------------2-222222--1-111111---|

e|------------------------------------------|
B|------------------------------------------|
G|-3-333333--4-444444-----------------------|
D|-3-333333--4-444444--4-444444--3-333333---|
A|-1-111111--2-222222--4-444444--3-333333---|
E|---------------------2-222222--1-111111---|

e|------------------------------------------|
B|------------------------------------------|
G|-3-333333--4-444444-----------------------|
D|-3-333333--4-444444--4-444444--3-333333---|
A|-1-111111--2-222222--4-444444--3-333333---|
E|---------------------2-222222--1-111111---|

e|------------------------------------------|
B|------------------------------------------|
G|-3-333333--4-444444-----------------------|
D|-3-333333--4-444444--4-444444--3-333333---|
A|-1-111111--2-222222--4-444444--3-333333---|
E|---------------------2-222222--1-111111---|

(Solo)
Lead Guitar
e------------------------9-13-13-13-11-9----|
B-11-11-11-9----9-9-9-11-----------------11-|
G------------10-----------------------------|
D-------------------------------------------|
A-------------------------------------------|
E-------------------------------------------|

e------------------------------------|
B-11-11-11-11-9----------------------|
G---------------10-10-8--------------|
D-----------------------11-8----8-8--|
A----------------------------11------|
E------------------------------------|

e------------------------9-13-13-13-11-9----|
B-11-11-11-9----9-9-9-11-----------------11-|
G------------10-----------------------------|
D-------------------------------------------|
A-------------------------------------------|
E-------------------------------------------|

e------------------------------------|
B-11-11-11-11-9----------------------|
G---------------10-10-8--------------|
D-----------------------11-8----8-8--|
A----------------------------11------|
E------------------------------------|

Rhythm Guitar
e|-------------------------------------------------------|
B|-------------------------------------------------------|
G|-3333-3333-33--6666-6666-66----------------------------|
D|-3333-3333-33--6666-6666-66--6666-6666-66-3333-3333-33-|
A|-1111-1111-11--4444-4444-44--6666-6666-66-3333-3333-33-|
E|-----------------------------4444-4444-44-1111-1111-11-|

e|--------------------------------------------------------|
B|--------------------------------------------------------|
G|-3333-3333-33--6666-6666-66-----------------------------|
D|-3333-3333-33--6666-6666-66--6666-6666-66-3x3x3-33-3333-|
A|-1111-1111-11--4444-4444-44--6666-6666-66-3x3x3-33-3333-|
E|-----------------------------4444-4444-44-1x1x1-11-1111-|

(Chorus)
Lead Guitar
e------------9-13-11-9---------------------------------|
B-11-9--9-11-----------11---11-11-9--------------------|
G-----10----------------------------10-10-8------------|
D-------------------------------------------11-8---8-8-|
A------------------------------------------------11----|
E------------------------------------------------------|

e------------9-13-11-9---------------------------------|
B-11-9--9-11-----------11---11-11-9--------------------|
G-----10----------------------------10-10-8------------|
D-------------------------------------------11-8---8-8-|
A------------------------------------------------11----|
E------------------------------------------------------|

Rhythm Guitar
e|------------------------------------------|
B|------------------------------------------|
G|-3-333333--4-444444-----------------------|
D|-3-333333--4-444444--4-444444--3-333333---|
A|-1-111111--2-222222--4-444444--3-333333---|
E|---------------------2-222222--1-111111---|

e|------------------------------------------|
B|------------------------------------------|
G|-3-333333--4-444444-----------------------|
D|-3-333333--4-444444--4-444444--3-333333---|
A|-1-111111--2-222222--4-444444--3-333333---|
E|---------------------2-222222--1-111111---|

e|------------------------------------------|
B|------------------------------------------|
G|-3-333333--4-444444-----------------------|
D|-3-333333--4-444444--4-444444--3-333333---|
A|-1-111111--2-222222--4-444444--3-333333---|
E|---------------------2-222222--1-111111---|

e|-----------------------------------|
B|-----------------------------------|
G|-3-333333--4-444444----------------|
D|-3-333333--4-444444--4-444444--3---|
A|-1-111111--2-222222--4-444444--3---|
E|---------------------2-222222--1---|

(Outro)
e|-------------------------|
B|-------------------------|
G|-4-3-4-6-4-6-8-----8\----|
D|-4-3-4-6-4-6-8-----8\----|
A|-2-1-2-4-2-4-6-----6\----|
E|-------------------------|




           Lyrics:
(Verse)
Pull the curtain,close your eyes
There's no truth hidden in these lies
These words and feelings make no sense

Lost and hopeless once again
What's with this world I'm living in?
And I don't want a second chance

(Chorus)
There's nothing to do now
There's noting to say
Got no inspiration and everyday
I sit here alone
And nothing is new
Got no motivation 
Got nothing to lose

(Bridge)
(Everyone has turned away)
(Everyone has turned away)
(Everyone has turned away)

(Verse)
I see you out,alone at night
Wishing something could go right
No one seems to understand

They can never sympathize 
Looking for a reason why
everyone has turned away

(Chorus)
There's nothing to do now
There's noting to say
Got no inspiration and everyday
I sit here alone
And nothing is new
Got no motivation 
Got nothing to lose

(Solo)
These words and feelings make no sense
These words and feelings make no sense
These words and feelings make no sense
These words and feelings make no sense

I don't want a second chance
I don't want a second chance
I don't want a second chance
I don't want a second chance

(Chorus)
There's nothing to do now
There's noting to say
Got no inspiration and everyday
I sit here alone
And nothing is new
Got no motivation 
Got nothing to lose....
Tap to rate this tab
 
# A B C D E F G H I J K L M N O P Q R S T U V W X Y Z