Misc Unsigned Bands - Six Caliber - Badass tab

Intro : spelas 2x ganger

 Lead guitar intro :              sen deta spelas 1 gang
|-------------------------------|-----------------------------|
|------------spelas 2 ganger----|-----------------------------|
|-------------------------------|-----------------------------|
|-22.------------22.------------|-22-222----------------------|
|-22.------------22.------------|-22-222---\\\\\\\\\\\\-------|
|-00.-3-33-3333--00.-5-55-5555--|-00-000----------------------|


Rhythm guitar intro : spelas samtidigt som ovan.
|--------------------------------|----------------------------|
|--------------spelas 2 ganger---|----------------------------|
|--------------------------------|----------------------------|
|-22.------------22.-------------|-22-222---------------------|
|-22.------------22.-------------|-22-222---------------------|
|-00.------------00.-------------|-00-000---------------------|






 Riff 1: spelas av både Lead och Rhythm
|-----------------------------------|-------------------------|
|-----------------------------------|-------------------------| <--en gang
|-----------------spelas 4 ganger---|-------------------------|
|-22-------8-7-7\8-7\8--------------|--88-8-7-5---------------|
|-22-------8-7-7\8-7\8--------------|--88-8-7-5--5-4-3--------|
|-00-3-05--6-5-5\6-5\6--------------|--66-6-5-3--------5-4-3--|




Vers:   X = palm mutade,
|-------------------|--------------------------------------------------------|
|-----5-ganger------|--------------------------------------------------------|
|-------------------|--------------------------------------------------------|
|-------------------|-----5---------5-------7---------7-------9---------9\10-|
|-------------------|-----5---------5-------7---------7-------9---------9\10-|
|-00-2-03--02222----|0000-3-0-0-0-0-3--0000-5-0-0-0-0-5--0000-7-0-0-0-0-7\8--|
  XX X XX  XXXXX     xxxx   x x x x    xxxx   x x x x    xxxx   x x x x

|------------------------------|
|------------------------------|
|------------------------------|
|9\10--1212--1010--10-9.-------|
|9\10--1212--1010--10-9.-------|
|7\8---1010--8-8---8--7.-------|

Refräng/chorus:
[jag ar inte riktigt klar med refrangen]
|--------------|
|--------------|
|--------------|
|-5-5-5--22-7--|
|-5-5-5--22-7--|
|-0-3-0--00-5--|
Tap to rate this tab
 
# A B C D E F G H I J K L M N O P Q R S T U V W X Y Z