Song name
# A B C D E F G H I J K L M N O P Q R S T U V W X Y Z

Misc Unsigned Bands - Shes Out Of My League - She Left Me For A Reason tab

Intro

Clean
E--------------------------------------------------------]
B------7--7--7--10-10-10-9--9--7--7--7--7--7--7--7--7----]
G------9--9--9--9--9--9--9--9--9--9--9--8--8--8--8--8----]
A--------------------------------------------------------]
D--------------------------------------------------------]
E--------------------------------------------------------]

E--------------------------------------------------------]
B------7--7--7--10-10-10-9--9--7--7--7--7--7--7--7--7----]
G------9--9--9--9--9--9--9--9--9--9--9--8--8--8--8--8----]Repeat Twice
A--------------------------------------------------------]
D--------------------------------------------------------]
E--------------------------------------------------------]
                                      She left me for a... 
Verse
E--------------------------------------------------------]
B------7--7--7--10-10-10-9--9--7--7--7--7--7--7--7--7----]
G------9--9--9--9--9--9--9--9--9--9--9--8--8--8--8--8----]
A--------------------------------------------------------]
D--------------------------------------------------------]
E--------------------------------------------------------]
  ...Reason                            I didn't   under...   
E--------------------------------------------------------]
B------7--7--7--10-10-10-9--9--7--7--7--7--7--7--7--7----]
G------9--9--9--9--9--9--9--9--9--9--9--8--8--8--8--8----]
A--------------------------------------------------------]
D--------------------------------------------------------]
E--------------------------------------------------------]
   ...stand                                  She said I...
                                             She said she
E--------------------------------------------------------]
B------7--7--7--10-10-10-9--9--7--7--7--7--7--7--7--7----]
G------9--9--9--9--9--9--9--9--9--9--9--8--8--8--8--8----]
A--------------------------------------------------------]
D--------------------------------------------------------]
E--------------------------------------------------------]
   ...lied which made us...
   ...cried and she wants to part...
E--------------------------------------------------------]
B------7--7--7--10-10-10-9--9--7--7--7--7--7--7--7--7----]
G------9--9--9--9--9--9--9--9--9--9--9--8--8--8--8--8----]Repeat
A--------------------------------------------------------]
D--------------------------------------------------------]
E--------------------------------------------------------]
    ...divide                            Why canít we go...
    ...sides

Pre Chorus

...back to how we used to be?
   used to...
E--------------------------------------------------------]
B--------------------------------------------------------]
G---9-9-9-9-9-9-9-9-9-9-9-9-9-9-9-9-9-9-9-9-9-9-9-9------]
D---9-9-9-9-9-9-9-9-9-9-9-9-9-9-9-9-9-9-9-9-9-9-9-9------]
A---7-7-7-7-7-7-7-7-7-7-7-7-7-7-7-7-7-7-7-7-7-7-7-7------]
E--------------------------------------------------------]
   Distortion
    mute gradually open up
    ...be

Chorus

E--------------------------------------------------------]
B--------------------------------------------------------]
G---9-9-9-9-9--------------------------------------------]
D---9-9-9-9-9---7-7-7-7-7---9-9-9-9-9---7-7-7-7-7--------]
A---7-7-7-7-7---7-7-7-7-7---9-9-9-9-9---7-7-7-7-7--------]
E---------------5-5-5-5-5---7-7-7-7-7---5-5-5-5-5--------]

E--------------------------------------------------------]
B--------------------------------------------------------]
G---9-9-9-9-9--------------------------------------------]
D---9-9-9-9-9--7-7-7-7-7--9-9-9-9-9-9-9-9-9-9-9-9-9-9-9-9]
A---7-7-7-7-7--7-7-7-7-7--9-9-9-9-9-9-9-9-9-9-9-9-9-9-9-9]
E--------------5-5-5-5-5--7-7-7-7-7-7-7-7-7-7-7-7-7-7-7-7]


Clean
E--------------------------------------------------------]
B------7--7--7--10-10-10-9--9--7--7--7--7--7--7--7--7----]
G------9--9--9--9--9--9--9--9--9--9--9--8--8--8--8--8----]
A--------------------------------------------------------]
D--------------------------------------------------------]
E--------------------------------------------------------]

E--------------------------------------------------------]
B------7--7--7--10-10-10-9--9--7--7--7--7--7--7--7--7----]
G------9--9--9--9--9--9--9--9--9--9--9--8--8--8--8--8----]
A--------------------------------------------------------]
D--------------------------------------------------------]
E--------------------------------------------------------]
                                      She left me for a... 
Verse
E--------------------------------------------------------]
B------7--7--7--10-10-10-9--9--7--7--7--7--7--7--7--7----]
G------9--9--9--9--9--9--9--9--9--9--9--8--8--8--8--8----]
A--------------------------------------------------------]
D--------------------------------------------------------]
E--------------------------------------------------------]
  ...Reason                            I didn't   under...   
E--------------------------------------------------------]
B------7--7--7--10-10-10-9--9--7--7--7--7--7--7--7--7----]
G------9--9--9--9--9--9--9--9--9--9--9--8--8--8--8--8----]
A--------------------------------------------------------]
D--------------------------------------------------------]
E--------------------------------------------------------]
   ...stand                                 I swear we...
                                                was it...
E--------------------------------------------------------]
B------7--7--7--10-10-10-9--9--7--7--7--7--7--7--7--7----]
G------9--9--9--9--9--9--9--9--9--9--9--8--8--8--8--8----]
A--------------------------------------------------------]
D--------------------------------------------------------]
E--------------------------------------------------------]
   ...tried but she cant...
   ...was it really a rollercoaster...
E--------------------------------------------------------]
B------7--7--7--10-10-10-9--9--7--7--7--7--7--7--7--7----]
G------9--9--9--9--9--9--9--9--9--9--9--8--8--8--8--8----]Repeat
A--------------------------------------------------------]
D--------------------------------------------------------]
E--------------------------------------------------------]
    ...abide                           Why canít we go...
    ...ride

Pre Chorus

...back to how we used to be?
   used to...
E--------------------------------------------------------]
B--------------------------------------------------------]
G---9-9-9-9-9-9-9-9-9-9-9-9-9-9-9-9-9-9-9-9-9-9-9-9------]
D---9-9-9-9-9-9-9-9-9-9-9-9-9-9-9-9-9-9-9-9-9-9-9-9------]
A---7-7-7-7-7-7-7-7-7-7-7-7-7-7-7-7-7-7-7-7-7-7-7-7------]
E--------------------------------------------------------]
    Distortion
   mute gradually open up
 ...be

Chorus

E--------------------------------------------------------]
B--------------------------------------------------------]
G---9-9-9-9-9--------------------------------------------]
D---9-9-9-9-9---7-7-7-7-7---9-9-9-9-9---7-7-7-7-7--------]
A---7-7-7-7-7---7-7-7-7-7---9-9-9-9-9---7-7-7-7-7--------]
E---------------5-5-5-5-5---7-7-7-7-7---5-5-5-5-5--------]

E--------------------------------------------------------]
B--------------------------------------------------------]
G---9-9-9-9-9--------------------------------------------]Repeat Chorus
D---9-9-9-9-9--7-7-7-7-7--9-9-9-9-9-9-9-9-9-9-9-9-9-9-9-9]
A---7-7-7-7-7--7-7-7-7-7--9-9-9-9-9-9-9-9-9-9-9-9-9-9-9-9]
E--------------5-5-5-5-5--7-7-7-7-7-7-7-7-7-7-7-7-7-7-7-7]


Bridge

E--------------------------------------------------------]
B--------------------------------------------------------]
G---9----------------------------------------------------]
D---9----------------------------------------------------]
A---7----------------------------------------------------]
E--------------------------------------------------------]
   Hold note

I said Iíll go, go, go
Cosí I canít cope, cope, cope
I said Iíll go, go, go
Youíll just take me to a new...

E--------------------------------------------------------]
B--------------------------------------------------------]
G---9-9-9-9-9-9-9-9-9-9-9-9-9-9-9-9-9-9-9-9-9-9-9-9------]
D---9-9-9-9-9-9-9-9-9-9-9-9-9-9-9-9-9-9-9-9-9-9-9-9------]
A---7-7-7-7-7-7-7-7-7-7-7-7-7-7-7-7-7-7-7-7-7-7-7-7------]
E--------------------------------------------------------]
  ...low 
   mute gradually open up

Chorus

E--------------------------------------------------------]
B--------------------------------------------------------]
G---9-9-9-9-9--------------------------------------------]
D---9-9-9-9-9---7-7-7-7-7---9-9-9-9-9---7-7-7-7-7--------]
A---7-7-7-7-7---7-7-7-7-7---9-9-9-9-9---7-7-7-7-7--------]
E---------------5-5-5-5-5---7-7-7-7-7---5-5-5-5-5--------]

E--------------------------------------------------------]
B--------------------------------------------------------]
G---9-9-9-9-9--------------------------------------------]Repeat Chorus
D---9-9-9-9-9--7-7-7-7-7--9-9-9-9-9-9-9-9-9-9-9-9-9-9-9-9]
A---7-7-7-7-7--7-7-7-7-7--9-9-9-9-9-9-9-9-9-9-9-9-9-9-9-9]
E--------------5-5-5-5-5--7-7-7-7-7-7-7-7-7-7-7-7-7-7-7-7]

E--------------------------------------------------------]
B--------------------------------------------------------]
G---9----------------------------------------------------]
D---9----------------------------------------------------]
A---7----------------------------------------------------]
E--------------------------------------------------------]
Tap to rate this tab
 
# A B C D E F G H I J K L M N O P Q R S T U V W X Y Z