Misc Unsigned Bands - Bjorn Lynne - Under The Bards Tree tab

-------------------------------------------------------------------------------
			    Under the Bard's Tree - Bjorn Lynne
-------------------------------------------------------------------------------

Midi file:   http://www.lynnemusic.com/midi/bjorn__lynne-_Under_The_Bards_Tree.mid
Intro:
E -------------------------------------------------------------------------------|
B ----------0-----------------------------------0--------1-----------------------|
G ----0--2-----2--0----0--2------------0-----2-----2--0-----2--00---------------|
D -0----------------3----------0--23----3---------------------------3--2--------|
A --------------------------------------------------------------------------2----|
E -------------------------------------------------------------------------------|

E -----------------------------------------------------------------------------|
B -------0------3-------------------0------------------------------------------|
G ----0----2--0---0-----0--2-----------2--0-----02----------------------------|
D -0-----------------3--------3--0-----------3--------3---0----------0--0------|
A ------------------------------------------------------------0--2-------------|
E -----------------------------------------------------------------------------|

(Intro repeats with some variation)

Part 1:
E -------------------------------------------------------0--------------------------------|
B -3--0----------1-------0-------------------------3--3-----30---------------------------|
G -------3--03-----2-------2---0-----02-------------------------2---0-----0---2--2------|
D ---------------------3-----------3-------30---------------------------3-------------0--|
A ----------------------------------------------------------------------------------------|
E ----------------------------------------------------------------------------------------|

E -----------------------------------------------------------0------------------------|
B -3--0-----------1--------0--------------------3--0------------0---------------------|
G -------2--0--2-----2--------20----02---------------20----------2-0---------0-----|
D ----------------------3---------3-------30----------------------------3-0-3--------|
A ------------------------------------------------------------------------------------|
E ------------------------------------------------------------------------------------|

Part 2:
E -----------------------------------------------------------------1---------------------|
B -----------------------------0--------------0---------0--0--1--3----1--0----0----------|
G -----------------------02---------------------20------------------------2----20-----|
D -0-------030-------------------30---------------------------------------------------|
A ----32----------32-------------------32---------------------------------------------|
E ---------------------------------------------------------------------------------------|
Tap to rate this tab
 
# A B C D E F G H I J K L M N O P Q R S T U V W X Y Z