Song name
# A B C D E F G H I J K L M N O P Q R S T U V W X Y Z

Misc Unsigned Bands - Khoda - International tab

Drop D
This Is Our Fisrt Tab

Intro:
Guitar 2 (Clean)
------------------------------------------------------------|
------------------------------------------------------------|
------------------------------------------------------------|
9h11-111111-12h11-9-9-9h11--9-9-9999-9-9999-5-5-5555-5-5555-|
9----9-9-9--9-----9-9-9-----9-9-9999-9-9999-5-5-5555-5-5555-|
9----9-9-9--9-----9-9-9-----9-9-9999-9-9999-5-5-5555-5-5555-|

---------------------------|
---------------------------|
---------------------------|
9h11-111111-11h12-9-9-9h11-|
9----9-9-9--9-----9-9-9----|
9----9-9-9--9-----9-9-9----|

Do Once Then Guitar One Comes in and This is  Guitar Two's only line.

Guitar One

.......................
------------------------|
------------------------|
------------------------|
9-9-9-9-9-9-9-9-9-9-9-9-|
9-9-9-9-9-9-9-9-9-9-9-9-|
9-9-9-9-9-9-9-9-9-9-9-9-|

.......................
------------------------|
------------------------|
------------------------|
7-7-7-7-7-7-5-5-5-5-5-5-|
7-7-7-7-7-7-5-5-5-5-5-5-|
7-7-7-7-7-7-5-5-5-5-5-5-|

.......................
------------------------|
------------------------|
2-2-2-2-2-2-2-2-2-2-2-2-|
0-0-0-0-0-0-0-0-0-0-0-0-|
0-0-0-0-0-0-0-0-0-0-0-0-|
0-0-0-0-0-0-0-0-0-0-0-0-|

-------------------------------------------------|
-------------------------------------------------|
-------------------------------------------------|
5-5-5-5-7-7-7-7-9-9-9-9-11-11-11-11-12-12-121212-|
5-5-5-5-7-7-7-7-9-9-9-9-11-11-11-11-12-12-121212-|
5-5-5-5-7-7-7-7-9-9-9-9-11-11-11-11-12-12-121212-|

--------------------------|
--------------------------|
--------------------------|
121212-12-12-121212121212-|
121212-12-12-121212121212-|
121212-12-12-121212121212-|

Verse:

---------------------------|
---------------------------|
---------------------------|
0-0-0000-0-0000-0-9-9-9999-|
0-0-0000-0-0000-0-9-9-9999-|
0-0-0000-0-0000-0-9-9-9999-|
                                    x4
------------------------------------|
------------------------------------|
------------------------------------|
9-9999-9-5-5-5555-5-5555-5-0-0-0000-|
9-9999-9-5-5-5555-5-5555-5-0-0-0000-|
9-9999-9-5-5-5555-5-5555-5-0-0-0000-|

Pre Chorus:

--------|
--------|
--------|
x-x-xxxx|    (Drum Fill)
x-x-xxxx|
x-x-xxxx|

Chorus:

-----------------------------------------|
-----------------------------------------|
-----------------------------------------|
0-0-0000-0-0000-7-7-7777-7-7777-4-4-4444-|
0-0-0000-0-0000-7-7-7777-7-7777-4-4-4444-|
0-0-0000-0-0000-7-7-7777-7-7777-4-4-4444-|
                                          x6
--------------------------|
--------------------------|
7-77-7777-----------------|
7-77-7777-2-2-2222-2-2222-|
5-55-5555-2-2-2222-2-2222-|
0-00-0000-2-2-2222-2-2222-|

Bridge:

--------------------------------------|
--------------------------------------|
--------------------------------------|
4h5-4h5-4h5-4h5-4-0-0-0000-7-7-777----|   x2
4h5-4h5-4h5-4h5-4-0-0-0000-7-7-777----|
4h5-4h5-4h5-4h5-4-0-0-0000-7-7-777----|




Order:
Intro
Verse
Intro
Chorus
Verse
Chorus
Bridge
1/2 of the Intro
Chorus
Intro (Guitar One Only) Twice)



Tabbed by Bode
Tap to rate this tab
 
# A B C D E F G H I J K L M N O P Q R S T U V W X Y Z