Song name
# A B C D E F G H I J K L M N O P Q R S T U V W X Y Z

Misc Unsigned Bands - Gabrielle Aplin - More Than Friends tab

------------------------------------------------------------------------------------------------
	                             MORE THAN FRIENDS- Gabrielle Aplin
------------------------------------------------------------------------------------------------
Tabbed by: Emma
Email: emmagoesrawrr@hotmail.com

Tuning:Standard Capo 6

e|--------------------------------------------------------------------------------------------|
B|----3-----------3----------3-----------3----------3----------3-----------3---------2--------|
G|---------2------------2----------2----------2----------4-----------4----------4----------2--|
D|----0-----------0----------0----------------------------------------------------------------| x6
A|----------------------------------4-----------------2----------2-----------2--------0-------|
E|--------------------------------------------------------------------------------------------|
		D						Bm		    A
e|---------------------------------------------------------------------------------------------|
B|----0----------0-----------3----------3-----------3-----------3-----------2------------2-----|
G|---------0----------0------------2----------2-----------4-----------4------------2---------2-|x2
D|---------------------------------------------------------------------------------------------|
A|----------------------------------------------------2-----------2-----------0------------0---|
E|-----3----------3-----------2----------2-----------------------------------------------------|
		G		    D			    Bm			A
e|------------------------------------------|
B|------2---------2----------2--------------|
G|-----------3---------3-----------3--------|  Repeat this whole thing twice.
D|------------------------------------------|
A|------------------------------------------|
E|------2----------2----------2-------------|
		    F#
        v     v ^ v ^     v     v ^ v ^       v     v ^ v ^
e|----2---2-2-2-2----2---2-2-2-2-----3---3-3-3-3------2---2-2-2-2---|
B|---3---3-3-3-3----2---2-2-2-2-----3----3-3-3-3-----3---3-3-3-3----|
G|---4---4-4-4-4----3---3-3-3-3-----0----0-0-0-0-----2---2-2-2-2----|x6
D|---4---4-4-4-4----4---4-4-4-4-----0----0-0-0-0-----0---0-0-0-0----|
A|---2---2-2-2-2----4---4-4-4-4-----2----2-2-2-2-----x---x-x-x-x----|
E|----2--2-2-2-2----2---2-2-2-2-----3----3-3-3-3-----x---x-x-x-x----|
	Bm		  F#                      G                     D
           v     v ^ v ^
e|------2----2-2-2-2----|
B|-----2----2-2-2-2-----|        ok so for this only play the
G|-----3----3-3-3-3-----|        down strokes with the full
D|-----4----4-4-4-4-----|        chords and damper the ups.
A|-----4----4-4-4-4-----|       except damper the first down
E|-----2----2-2-2-2-----|        to

e|--------------------------------------------------------------------------------------------|
B|----3-----------3----------3-----------3----------3----------3-----------3---------2--------|
G|---------2------------2----------2----------2----------4-----------4----------4----------2--|
D|----0-----------0----------0----------------------------------------------------------------| x4
A|----------------------------------4-----------------2----------2-----------2--------0-------|
E|--------------------------------------------------------------------------------------------|
		D						Bm		    A

************************************

| /   slide up
| \   slide down
| h   hammer-on
| p   pull-off
| ~   vibrato
| +   harmonic
| x   Mute note
| b   Bend
| pb  Pre-bend
| br  Bend release
| pbr Pre-bend release
| brb Bend release bend
Tap to rate this tab
 
# A B C D E F G H I J K L M N O P Q R S T U V W X Y Z