Song name
# A B C D E F G H I J K L M N O P Q R S T U V W X Y Z

Misc Unsigned Bands - Maldita - Porque tab

-------------------------------------------------------------------------------
			     Porque? - Maldita
-------------------------------------------------------------------------------
Tabbed by:U-G21
Email:ditsapit21@yahoo.com

Take note: Kinapa ko lang po ito kaya all consrtuctive critisisms are welcome.. Also
this is my first time tabbing kaya po ganito.. Yung pong "TAP" hindi po siya actual na tap,
pang stop lang po iyon ng sound tulad ng nandoon sa actual song.. Again, this is not 
100% correct but I really hope this helps..

Tuning:eBGDAE (Capo on 2nd Fret)

e|-----0h2p0-----0--2-----2--0----0--2-----2--------------------------------|
B|------------3-----3--T--3----3--3--3--T--3-----3--0-----------------------|
G|--2------------------A----------------A-----0-----------------------------|
D|---------------0-----P--0-------------P-----------------------------------|
A|--------------------------------------------------------------------------|
E|--------------------------------3--------3--------------------------------|
               D                  G

e|-----------------0-----------0-----0--------------------------------------|
B|--------------3-----3--0--2--2--T--2--------------------------------------|
G|-----------0--------------2-----A-----------------------------------------|
D|--------2-----------------------P-----------------------------------------|
A|-----2--------------------0--------0--------------------------------------|
E|--0-----------------------------------------------------------------------|
    Em7                     A

e|-----0h2p0-----0--2-----2--0-----0--2-----2--2--3--3/5--------------------|
B|------------3--3--3--T--3-----3--3--3--T--3-------------------------------|
G|--2------------------A-----------------A----------------------------------|
D|---------------0-----P--0--------------P----------------------------------|
A|--------------------------------------------------------------------------|
E|---------------------------------3--------3-------------------------------|
                 D                 G

e|-----------------0-----------------5--------------------------------------|
B|--------------3-----3--0--2-----2-----------------------------------------|
G|-----------0--------------2--2--------------------------------------------|
D|--------2-----------------------------------------------------------------|
A|-----2--------------------0-----------------------------------------------|
E|--0-----------------------------------------------------------------------|
    Em7                     A



************************************

| /   slide up
| h   hammer-on
| p   pull-off

************************************
Tap to rate this tab
 
# A B C D E F G H I J K L M N O P Q R S T U V W X Y Z