Song name
# A B C D E F G H I J K L M N O P Q R S T U V W X Y Z

Misc Unsigned Bands - Christopher Owens - Oh My Love tab

-------------------------------------------------------------------------------
			     Oh My Love – Christopher Owens
-------------------------------------------------------------------------------
Tabbed by:rawpickles
Tuning:standard


Intro: A
e|---------------------------------------------|    |---------------------------------|
B|---------2-------2h3-----------3---2---------|    |-2---2h3-----------3---2---------|
G|---------2-------------2---------------2-----|(x1)|-----------2---------------2-----|(x2)
D|-----2-------2-------------2---------------2-|    |---------------2---------------2-|
A|-0-------------------------------------------|    |---------------------------------|
E|---------------------------------------------|    |---------------------------------|

Verses: A                                Bm                              E
e|-------------------------------------|---------------------------------------------0-|
B|---------2-------2h3-----------3---2-|---------3---------------3---------------0-----|
G|---------2-------------2-------------|---------4---------------4---------------1-----|
D|-----2-------2-------------2---------|-----4-------4-------4-------4-------2---------|
A|-0-----------------------------------|-2---------------0-----------------------------|
E|-------------------------------------|---------------------------------0-------------|
  You never said you might be leaving   You never let on with those eyes

   E                                   A
e|-----------------------------------|-------------------------------------|
B|---------0-------3-----------3---0-|---------2-------2h3-----------3---2-|
G|---------1-----------1-------------|---------2-------------2-------------|
D|-----2-------2-----------2---------|-----2-------2-------------2---------|
A|-2---------------2---------------2-|-0-----------------------------------|
E|-----------------------------------|-------------------------------------|
  You always said it was forever      You always told such pretty lies

Chorus: Bm                         E               A
e|---------------------------------------------0-------------------------------------------2-|
B|---------3---------------3---------------0---------------2---------------2---------------2-|
G|---------4---------------4---------------1---------------2---------------2-----------------|
D|-----4-------4-------4-------4-------2---------------2---------------2---------------2-----|
A|-2---------------0-------------------------------0-----------0-----------------------------|
E|---------------------------------0-------------------------------4-----------4---2---------|
  And just like always oh my love I know you’re just foolin

   Bm                              E               A
e|---------------------------------------------0---------------------------------------|
B|---------3---------------3---------------0---------------2-------2h3-----------3---2-|
G|---------4---------------4---------------1---------------2-------------2-------------|
D|-----4-------4-------4-------4-------2---------------2-------2-------------2---------|
A|-2---------------0-------------------------------0-----------------------------------|
E|---------------------------------0---------------------------------------------------|
  Just like always oh my love foolin with my heart

V2:
You never wore it on your finger
You never told your mother so
You always gave me such a fever
And so much trouble in my soul

V3:
I never thought Id just be crying
When you went away that day
I never thought Id find another
And she could take the pain away

V4: 
I never felt somebody love me
The way my baby loves me now
She took my heart and made me happy
Thats why Ill never let her down
Tap to rate this tab
 
# A B C D E F G H I J K L M N O P Q R S T U V W X Y Z