Misc Unsigned Bands - Greenhaw - Perfect tab

Alright this is my first song and it's not complete so no laughing!

 Greenhaw


    C
Now there's this girl who's so beautiful,
      Cadd9 
And I don't know how to get her anymore
    D             G          Cadd9
And this is kind, Driving me crazy
D                                               G                 Cadd9
You see I met this girl one Sunday morning, and she was lookin so fine
G                           D                                 Cadd9
And I never thought on from that day on she'd always be on my mind
      Dsus4                 Cadd9              G              
Now I always try to get her attention but that doesn't really work.
    D                                              Cadd9 (without pointer) 
Sometimes I think I try too hard and come off as a jerk
      G                                  Cadd9   
And I don't want her to think of me like that cause that would be all wrong
Dsus4                                                C                G
So I'm trying to show her her the true side of me by writing her this song
Gadd9                   Cadd9
And this girl is pretty perfect as you can see
C                                    G
But my problem is she's not that into me
Cadd9                                     G
I've messed up so many times that I can't even count
Gadd9                    Cadd9
and that, kinda ruins it all
G                                         D
Now her eyes are like the ocean, with the setting sun in them







solo
|------------------------------------------------------7h10--10--7--------|
|-------------------------------------------------------------------10-7--|
|----------------7v~--7h9/11--11--11-9--7---------------------------------|
|------7v~---7h9---------------------------9--9p7-------------------------|
|-7h9----------------------------------------------9----------------------|
|-------------------------------------------------------------------------|

|------------------7h10--10--10/12--12--12--10--7--10~--------------------|
|-------------------------------------------------------------------------|
|9--99--------------------------------------------------------------------|
|-------9-----7v~---------------------------------------------------------|
|----------9--------------------------------------------------------------|
|-------------------------------------------------------------------------|
Tap to rate this tab
 
# A B C D E F G H I J K L M N O P Q R S T U V W X Y Z